To celebrate the anniversary, I am giving you (finally...) : iPhone LickByNeck !!!!!!
0 com

Careless Whisper (BASIC)

George Michael's tune fingerstyle chord melody guitar BASIC arrangement played in the key of Em. Careless Whisper - Georg Michael - BASIC ARRANGEMENT played in the key of Em
http://classicalguitartablature.blogspot.com/
E| 2-- 0-------- 2-- 0------------|--------------------------------|
B| 0-- 0 0------ 0---- 0-------- 3|-- 1------------ 3-- 1----------|
G| 0------ 0-- 0 0-------------- 0|------ 0---- 0-- 0---- 0--------|
D|---------- 2-------------- 2-- 2|-------- 2------ 2-------- 2-- 2|
A|--------------------------------| 0-------------- 0------------ 3|
E| 0-------------- 0--------------|--------------------------------|
http://classicalguitartablature.blogspot.com/
E|--------------------------------|--------------------------------|
B| 1-- 0--------------------------|--------------------------------|
G| 0------ 0----------------------|------------------ 0-- 2---- 3--|
D|------------ 2-------------- 2--|------ 0---- 2 4----------------|
A|---------------- 3--------------| 2-- 3--------------------------|
E|--------------------------------|--------------------------------|
http://classicalguitartablature.blogspot.com/
http://classicalguitartablature.blogspot.com/
E|--------------------------------|--------------------------------|
B| 0-- 0--------------------------|--------------------------------|
G| 0-- 0------ 2------ 0----------|--------------------------------|
D| 0-- 0---------------------- 2--|-------------------------- 2----|
A|--------------------------------| 0------------ 0 0-- 0---- 2----|
E| 0---------- 0------------------|--------------------------------|
http://classicalguitartablature.blogspot.com/
E|--------------------------------|--------------------------------|
B| 0---- 1---------------------- 0|--------------------------------|
G| 0---- 0---- 2-------- 0------ 2|---- 2---- 0--------------------|
D| 2---- 2---- 2---- 2-------- 2 0|---- 0-------------- 0-- 4------|
A| 3---------- 3---------------- 2|---------- 2--------------------|
E|--------------------------------|--------------------------------|
http://classicalguitartablature.blogspot.com/
E|--------------------------------|--------------------------------|
B|-------------- 0------ 0--------|------------ 3-- 1--------------|
G|------ 0 2---------- 2------ 2--|-------- 0-- 0---- 0---- 0 0----|
D|-- 2-- 4---------- 4------ 4----|---- 2 4-- 2-------- 2------ 0--|
A|--------------------------------| 0-------------- 0---------- 2--|
E| 0------------------------------|--------------------------------|
http://classicalguitartablature.blogspot.com/
E|--------------------------------|--------------------------------|
B| 0-- 1-- 0 1-- 0-- 1-- 0--------| 0-- 0--------------------------|
G| 0-- 0-- 0 0-- 0-- 0-- 0-- 0----| 2-- 2---- 2---- 0-- 0----------|
D| 2-- 2-- 2 2-- 2-- 2------ 2-- 2| 0-- 0---- 0---- 0-- 0---- 4----|
A| 3-------------- 3--------------| 2-------- 2---- 2-------- 2----|
E|--------------------------------|--------------------------------|
http://classicalguitartablature.blogspot.com/
E|---- 3 3-- 2 2 2---- 0-------- 3|-- 0-- 3-- 0---- 5 3-- 2-- 0----|
B|------ 0-- 0 0 0-- 0 0-------- 1|-- 1-- 1------ 0 0 0-- 0--------|
G|---- 4 4-- 2 2 2-- 0 0---- 0----| 0 0-- 0---- 0-- 5 4-- 2------ 0|
D| 2---------------------- 0------|---------------------------- 0--|
A|--------------------------------| 0------ 0------ 0------ 0------|
E| 0------------------------------|--------------------------------|
http://classicalguitartablature.blogspot.com/
E|-- 3-- 3 3 2 2 2-- 0 0------ 0 2|-- 2-- 2---------------------- 3|
B|-- 1-- 1-- 1 1 1-- 1 1-------- 3|-- 3-- 3-- 5 3 5---- 3-------- 0|
G|-- 0-- 0 0 0 0 0 0 0 0---- 0-- 2|-- 2-- 2-- 2 2 2---- 2------ 2 4|
D|------------------------ 2------|---------- 4 4 4---- 4---- 4-- 4|
A| 3------ 3------ 3---- 3------ 2|-------- 2------ 2------ 2------|
E|--------------------------------|--------------------------------|
http://classicalguitartablature.blogspot.com/
E|---- 3 3-- 2 2 2-- 0 0-------- 3|-- 0-- 3-- 0---- 5 3-- 2-- 0----|
B|---- 0 0-- 0 0 0-- 0 0------ 0 1|-- 1-- 1------ 0 0 0-- 0--------|
G|---- 4 4-- 2 2 2-- 0 0---- 0-- 0| 0 0-- 0---- 0-- 5 4-- 2------ 0|
D|------------------------ 0------|---------------------------- 0--|
A|--------------------------------| 0------ 0------ 0------ 0------|
E| 0------ 0------ 0--------------|--------------------------------|
http://classicalguitartablature.blogspot.com/
E|-- 3-- 3 3 2 2 2-- 0 0------ 0 2| 2-- 0---- 2---- 3-- 3-- 2-- 0 7|
B|-- 1-- 1-- 1 1 1-- 1 1-------- 0| 0---- 0-- 0 0-- 0 0---- 0------|
G|-- 0-- 0 0 0 0 0 0 0 0---- 0-- 2| 2---- 2---- 2---- 2------ 2----|
D|------------------------ 2------|--------------------------------|
A| 3------ 3------ 3---- 3------ 2|-------- 2------ 2------ 2------|
E|--------------------------------|--------------------------------|
http://classicalguitartablature.blogspot.com/
E|---- 5 5-- 3-- 7-- 5 3 0---- 0 7|---- 5 5-- 3-- 7 5-- 3---- 0----|
B|---- 0 0------ 0-- 0 0 0--------| 0-- 0 0-- 0------ 0 0 0------ 8|
G| 7-- 5 5 4-- 0 7-- 5 4 0-- 0----| 7-- 5 5 4 4------ 5 4---- 0-- 9|
D|-------------------------- 0----|------------------------------10|
A|--------------------------------| 0------ 0------ 0------ 0------|
E| 0------ 0------ 0--------------|--------------------------------|
http://classicalguitartablature.blogspot.com/
E|--------------------------------|---------------------------- 0 7|
B|-- 8-- 8-- 8--10--10 8 8-- 8----| 7-- 7-- 7-- 7-- 7 8--1010------|
G|-- 9------ 9-- 9-- 9 9 9------ 9|-- 9-- 9 7 9-- 9-- 7-- 7---- 9--|
D|--10--10--10--10--101010----10 7|---------------- 7 7-- 7--------|
A|--------------------------------|--------------------------------|
E| 8------ 8------ 8------ 8---- 7|-------- 7------ 7------ 7------|
http://classicalguitartablature.blogspot.com/
E|---- 5 5-- 3-- 7-- 5 3 0---- 0 7|---- 5 5-- 3-- 7 5-- 3---- 0----|
B|---- 0 0------ 0-- 0 0 0--------| 0-- 0 0-- 0------ 0 0 0------12|
G| 7-- 5 5 4-- 0 7-- 5 4 0-- 0----| 7-- 5 5 4 4------ 5 4---- 0----|
D|-------------------------- 0----|--------------------------------|
A|--------------------------------| 0------ 0------ 0------ 0------|
E| 0------ 0------ 0--------------|--------------------------------|
http://classicalguitartablature.blogspot.com/
E|12--------10--10-- 8-- 8------ 7|--------------------------------|
B|------12-- 8-- 8-- 8-- 8--12-- 7|---------- 710-- 8--------------|
G|12--12---- 9-- 9-- 9-- 9------ 7|------ 7---- 7-- 7---- 9---- 9--|
D|--------------------------------|---- 7---- 7-------------- 7----|
A|--------------------------------|--------------------------------|
E| 8------ 8------ 8------ 8------| 7------ 7------ 7-- 7-- 7------|
http://classicalguitartablature.blogspot.com/
E|--------12 1------------10------|------12---------------------- 5|
B|---- 0-- 0-------------- 013----|------13--------------12------ 5|
G|---- 012--11------11----11--12--|------12------12------12--1412 4|
D|---- 0----------------------14--|--14--------14----14--14--1414--|
A|------------------------------ 0|------------------------------ 3|
E| 0------------------------------|--------------------------------|
http://classicalguitartablature.blogspot.com/
E|-- 3-------------- 3-- 3 3 3----| 5---- 2------------------------|
B|-- 5---------------- 5 5-- 5----| 3---- 3-- 5 3-- 5-- 3----------|
G|---- 4-- 4---------- 4 4 4 4----| 2---- 2-- 2 2-- 2-- 2------ 2--|
D|--------------------------------|---- 4---- 4 4-- 4------ 4------|
A|-------------- 3 3--------------| 2-------------- 2--------------|
E|--------------------------------|--------------------------------|
http://classicalguitartablature.blogspot.com/
E|-------------- 2-- 0---- 2-- 0--|-------------- 2---- 0-- 2-- 0--|
B|---- 0---- 0 0 0---- 0-- 0------|---- 1---- 1---- 1-- 1-- 1------|
G|---- 0---- 0 0-- 0-- 0-- 0-- 0--|---- 0---- 0---- 0-- 0-- 0-- 0--|
D|---- 0---- 0 0------------------|---- 2---- 2-- 2----------------|
A|--------------------------------| 0-------- 0--------------------|
E| 0-------- 0--------------------|--------------------------------|
http://classicalguitartablature.blogspot.com/
E|-------------- 2-- 0---- 2-- 0--|---------------- 2------ 2------|
B|---- 0---- 0-- 0-- 0---- 0-- 0--|---- 3---- 3---- 3-- 5-- 3-- 5--|
G|---- 0---- 0-- 0-- 0---- 0-- 0--|---- 2---- 2---- 2-- 2-- 2-- 2--|
D|---- 2---- 2 2------------------|---- 4---- 4-- 4---- 4------ 4--|
A| 3-------- 3--------------------| 2-------- 2--------------------|
E|--------------------------------|------------------------------ 0|
http://classicalguitartablature.blogspot.com/
E| 0------------------------------|--------------------------------|
B| 3------------------------------|--------------------------------|
G| 0-- 0--------------------------|--------------------------------|
D|-------- 4----------------------|--------------------------------|
A|--------------------------------|--------------------------------|
E|--------------------------------|--------------------------------|
http://classicalguitartablature.blogspot.com/
0 com

Obladi Oblada (BASIC)

The Beatles' tune fingerstyle chord melody guitar BASIC arrangement played in the key of Bb. Obladi Oblada - The Beatles - BASIC ARRANGEMENT played in the key of Bb
http://classicalguitartablature.blogspot.com/
E|--------------------------------|--------------------------------|
B| 6-- 6 6-- 6 6 6----------------|---- 6------ 6------ 6------ 6--|
G| 8------------------ 9-- 8-- 7--|---- 7------ 7------ 7------ 7--|
D| 7------------------------------|---- 8------ 8------ 8------ 8--|
A|--------------------------------|------------ 8-------------- 8--|
E|--------------------------------| 6------10------ 6------10------|
http://classicalguitartablature.blogspot.com/
E|--------------------------------|--------------------------------|
B|---- 6------ 6------ 6------ 6--|--------------------------------|
G|---- 7------ 7------ 7------ 7--| 7---- 7---- 7-- 7-- 7-- 5------|
D|---- 8------ 8------ 8------ 8--|---- 8------ 8-- 8-- 8------ 8--|
A|------------ 8-------------- 8--|-------- 5-- 8---------- 5-- 8--|
E| 6------10------ 6------10------| 6-------------- 6--------------|
http://classicalguitartablature.blogspot.com/
http://classicalguitartablature.blogspot.com/
E|--------------------------------|--------------------------------|
B|---- 1---- 1-------- 1----------| 4-- 4-- 4-- 4-- 4-- 4-- 3-- 1--|
G| 2---------- 2------ 2----------| 2-- 2-- 2-- 2-- 2-- 2-- 2-- 2--|
D| 3---------- 3------ 3----------|--------------------------------|
A|-------- 0-- 3---------- 0-- 3--|-------- 0-- 3---------- 0-- 3--|
E| 1-------------- 1--------------| 1-------------- 1--------------|
http://classicalguitartablature.blogspot.com/
E|--------------------------------|--------------------------------|
B|--------------------------------| 6---- 6-- 6---- 6------------ 4|
G|--------------------------------|---- 7---- 7------ 7-- 8-- 7----|
D| 8------------------------------|--------------------------------|
A|------------ 8-------------- 8--|------ 5---- 8-------- 5---- 8--|
E| 6------10------ 6------10------| 6-------------- 6--------------|
http://classicalguitartablature.blogspot.com/
E|------------ 3---- 3------------|--------------------------------|
B|-- 6-------- 4---- 4-- 6---- 4--|---------------- 1-- 4-- 3-- 1--|
G| 3-- 3------ 3---- 3-- 3---- 3--| 7 7-- 8---- 7-- 2-- 2-- 2-- 2--|
D|---------------------- 5---- 5--| 8 8------------ 3-- 3-- 3------|
A| 6-------------- 6--------------|------ 5---- 8---------- 0-- 3--|
E|------ 3---- 6-------- 3---- 6--| 6-- 5---------- 1--------------|
http://classicalguitartablature.blogspot.com/
E|--------------------------------|---------------------------- 1--|
B|---------------------------- 6--|------------ 6-------------- 1--|
G|------------------------ 7-- 7--|-------- 7-- 7---------- 7-- 2--|
D| 8------------------ 8-- 8-- 8--|---- 8-- 8-- 8------ 8-- 8------|
A|------------ 8---------- 5-- 8--|-------- 5-- 8---------- 5------|
E| 6------10------ 6--------------| 6-------------- 6--------------|
http://classicalguitartablature.blogspot.com/
E|---- 1------ 6------------------|--------------------------------|
B|---- 1------ 3---- 3---------- 6|-------------- 3-- 1------------|
G|---- 2------ 3---- 3---------- 7|-- 8-- 7-- 8-- 2---- 2----------|
D|-------------------- 5-------- 8|-- 8------------ 3-- 3------ 8--|
A|------ 0------------------ 5----|------ 5---- 8-------- 0--------|
E| 1-------------- 3---- 6--------| 6-------------- 1------------ 6|
http://classicalguitartablature.blogspot.com/
E|--------------------------------|---------------------------- 1--|
B|---------------------------- 6--|------------ 6-------------- 1--|
G|------------------------ 7-- 7--|-------- 7-- 7---------- 7-- 2--|
D|-------------------- 8-- 8-- 8--|---- 8-- 8-- 8------ 8-- 8------|
A|------------ 8---------- 5-- 8--|-------- 5-- 8---------- 5------|
E|--------10------ 6--------------| 6-------------- 6--------------|
http://classicalguitartablature.blogspot.com/
E|---- 1------ 6------------------|--------------------------------|
B|---- 1------ 3---- 3---------- 6|-------------- 3-- 1------------|
G|---- 2------ 3---- 3---------- 7|-- 8-- 7-- 8-- 2---- 2----------|
D|-------------------- 5-------- 8|-- 8------------ 3-- 3------ 8--|
A|------ 0------------------ 5----|------ 5---- 8-------- 0--------|
E| 1-------------- 3---- 6--------| 6-------------- 1------------ 6|
http://classicalguitartablature.blogspot.com/
E|--------------------------------|--------------------------------|
B|--------------------------------|------------ 6-- 8------ 6-- 8--|
G|---------------- 3--------------|-------- 8------ 8------ 8-- 8--|
D|---------------- 3--------------|---- 8-------------- 8-- 8-- 8--|
A|------------ 8------ 3-- 4-- 5--| 6------ 6------ 6------ 6------|
E|--------10------ 6--------------|------------ 6-------------- 6--|
http://classicalguitartablature.blogspot.com/
E| 6------------------------------|--------------------------------|
B| 8---------- 8---------------- 3|-- 3------ 3-- 1-- 1------ 1----|
G|-------- 8-- 8---------------- 3|-- 3------ 3-- 3-- 3------ 3----|
D|---- 8------ 8------ 8---- 8----| 3-- 3---- 3-- 3-- 3------ 3----|
A| 6------ 6------ 6------ 6------| 1---- 1-------- 1---- 1--------|
E|------------ 6-------------- 6--|---------- 1---------------- 1--|
http://classicalguitartablature.blogspot.com/
E|--------------------------------|--------------------------------|
B|--------------------------------|------------ 6-- 8------ 6-- 8--|
G| 3-- 3---- 3---- 1-- 1------ 1--|-------- 8------ 8------ 8-- 8--|
D| 3-- 3---- 3---- 3-- 3------ 3--|---- 8-------------- 8-- 8-- 8--|
A| 1------ 1------ 1------ 1------| 6------ 6------ 6------ 6------|
E|------------ 1-------------- 1--|------------ 6-------------- 6--|
http://classicalguitartablature.blogspot.com/
E| 6------------------------------|--------------------------------|
B| 8---------- 8---------------- 3|-- 3-- 3-- 4-------- 3------ 1--|
G|-------- 8-- 8---------------- 2|-- 2-- 2---- 2------ 2------ 2--|
D|---- 8------ 8------ 8---- 8----|-- 3-- 3---- 3------ 3------ 3--|
A| 6------ 6------ 6------ 6------|--------------------------------|
E|------------ 6-------------- 6--|---- 1------ 1------ 1------ 1--|
http://classicalguitartablature.blogspot.com/
E|--------------------------------|--------------------------------|
B|--------------------------------|--------------------------------|
G|--------------------------------| 7---- 7---- 7-- 7-- 7-- 5------|
D|--------------------------------|---- 8------ 8-- 8-- 8------ 8--|
A|---------------------------- 0--|-------- 5-- 8---------- 5-- 8--|
E|---- 1------ 1-- 1-- 1-- 3------| 6-------------- 6--------------|
http://classicalguitartablature.blogspot.com/
E|--------------------------------|--------------------------------|
B|---- 1---- 1-------- 1----------| 4-- 4-- 4-- 4-- 4-- 4-- 3-- 1--|
G| 2---------- 2------ 2----------| 2-- 2-- 2-- 2-- 2-- 2-- 2-- 2--|
D| 3---------- 3------ 3----------|--------------------------------|
A|-------- 0-- 3---------- 0-- 3--|-------- 0-- 3---------- 0-- 3--|
E| 1-------------- 1--------------| 1-------------- 1--------------|
http://classicalguitartablature.blogspot.com/
E|--------------------------------|--------------------------------|
B|--------------------------------| 6---- 6-- 6---- 6------------ 4|
G|--------------------------------|---- 7---- 7------ 7-- 8-- 7----|
D| 8------------------------------|--------------------------------|
A|------------ 8-------------- 8--|------ 5---- 8-------- 5---- 8--|
E| 6------10------ 6------10------| 6-------------- 6--------------|
http://classicalguitartablature.blogspot.com/
E|------------ 3---- 3------------|--------------------------------|
B|-- 6-------- 4---- 4-- 6---- 4--|---------------- 1-- 4-- 3-- 1--|
G| 3-- 3------ 3---- 3-- 3---- 3--| 7 7-- 8---- 7-- 2-- 2-- 2-- 2--|
D|---------------------- 5---- 5--| 8 8------------ 3-- 3-- 3------|
A| 6-------------- 6--------------|------ 5---- 8---------- 0-- 3--|
E|------ 3---- 6-------- 3---- 6--| 6-- 5---------- 1--------------|
http://classicalguitartablature.blogspot.com/
E|--------------------------------|---------------------------- 1--|
B|---------------------------- 6--|------------ 6-------------- 1--|
G|------------------------ 7-- 7--|-------- 7-- 7---------- 7-- 2--|
D| 8------------------ 8-- 8-- 8--|---- 8-- 8-- 8------ 8-- 8------|
A|------------ 8---------- 5-- 8--|-------- 5-- 8---------- 5------|
E| 6------10------ 6--------------| 6-------------- 6--------------|
http://classicalguitartablature.blogspot.com/
E|---- 1------ 6------------------|--------------------------------|
B|---- 1------ 3---- 3---------- 6|-------------- 3-- 1------------|
G|---- 2------ 3---- 3---------- 7|-- 8-- 7-- 8-- 2---- 2----------|
D|-------------------- 5-------- 8|-- 8------------ 3-- 3------ 8--|
A|------ 0------------------ 5----|------ 5---- 8-------- 0--------|
E| 1-------------- 3---- 6--------| 6-------------- 1------------ 6|
http://classicalguitartablature.blogspot.com/
E|--------------------------------|---------------------------- 1--|
B|---------------------------- 6--|------------ 6-------------- 1--|
G|------------------------ 7-- 7--|-------- 7-- 7---------- 7-- 2--|
D|-------------------- 8-- 8-- 8--|---- 8-- 8-- 8------ 8-- 8------|
A|------------ 8---------- 5-- 8--|-------- 5-- 8---------- 5------|
E|--------10------ 6--------------| 6-------------- 6--------------|
http://classicalguitartablature.blogspot.com/
E|---- 1------ 6------------------|--------------------------------|
B|---- 1------ 3---- 3---------- 6|-------------- 3-- 1------------|
G|---- 2------ 3---- 3---------- 7|-- 8-- 7-- 8-- 2---- 2----------|
D|-------------------- 5-------- 8|-- 8------------ 3-- 3------ 8--|
A|------ 0------------------ 5----|------ 5---- 8-------- 0--------|
E| 1-------------- 3---- 6--------| 6-------------- 1------------ 6|
http://classicalguitartablature.blogspot.com/
E|--------------------------------|--------------------------------|
B|------------------------------ 6|-------------- 3-- 1------------|
G|-------------------- 7-------- 7|-- 8-- 7-- 8-- 2---- 2----------|
D|-------------------- 8-------- 8|-- 8------------ 3-- 3------ 8--|
A|------------ 8-------------- 8--|------ 5---- 8-------- 0--------|
E|--------10---- 6------10--------| 6-------------- 1------------ 6|
http://classicalguitartablature.blogspot.com/
E|--------------------------------|--------------------------------|
B|------------------------------ 6|-------------- 3-- 1------------|
G|-------------------- 7-------- 7|-- 8-- 7-- 8-- 2---- 2------ 3--|
D|-------------------- 8-------- 8|-- 8------------ 3-- 3------ 3--|
A|------------ 8-------------- 8--|------ 5---- 8-------- 0--------|
E|--------10---- 6------10--------| 6-------------- 1--------------|
http://classicalguitartablature.blogspot.com/
E|--------------------------------|--------------------------------|
B|--------------------------------|--------------------------------|
G|-------- 3------ 3--------------|--------------------------------|
D|-------- 3------ 3--------------|--------------------------------|
A| 1-------------- 1--------------|--------------------------------|
E|-------- 1----------------------|--------------------------------|
http://classicalguitartablature.blogspot.com/
0 com

Can't Smile Without You (BASIC)

Barry Manilow's tune fingerstyle chord melody guitar BASIC arrangement played in the key of G. Can't Smile Without You - Barry Manilow - BASIC ARRANGEMENT played in the key of G
http://classicalguitartablature.blogspot.com/
E|------ 5---- 3------------------|------ 5---- 3------------ 0----|
B| 0-- 3 3---- 3------------------| 0-- 3 3---- 3------ 3------ 0--|
G| 2---------- 2------ 2------ 2--|---- 2 2------------ 2------ 2 5|
D| 0------------------ 0------ 0--| 0-- 0-------------- 0------ 0--|
A|--------------------------------|------------------------------ 0|
E| 3------ 3------ 3------ 3------| 0------ 0------ 0------ 0------|
http://classicalguitartablature.blogspot.com/
E|------ 7---- 5------------------|--------------------------------|
B|---- 5 5---- 5------------------|-------- 7------ 8------10------|
G|------ 5---- 5------ 5------ 5--| 5------ 5------ 5------ 7------|
D|-------------------- 5------ 5--| 5------ 7------ 5------ 7------|
A|-------- 0------ 0------ 0------| 5------ 5------ 7------ 9------|
E|--------------------------------|--------------------------------|
http://classicalguitartablature.blogspot.com/
http://classicalguitartablature.blogspot.com/
E| 5------------ 3------------ 2 2|------------ 2 3----------------|
B| 0---------- 0------------------|------ 0------------------------|
G| 0------ 0------------ 0--------|---- 0---------------- 0--------|
D|---- 0-------------- 0----------|-------------------- 0------ 0--|
A|---------------- 5--------------|-------------- 5----------------|
E| 3---------------------------- 3|------------------------------ 0|
http://classicalguitartablature.blogspot.com/
E|------ 5------ 3------------ 2 2|-------------- 3----------------|
B|---- 0--------------------------|------------ 0-------------- 0--|
G|---- 0------ 0---------- 0------|-------- 0-------------- 0------|
D|---- 0-------------- 0----------|---- 0-------------- 0----------|
A|-------------- 2----------------|-------------- 2----------------|
E|--------------------------------| 0------------------------------|
http://classicalguitartablature.blogspot.com/
E| 7---------- 5---------------- 7|---------- 5------------------ 7|
B| 5---------------------- 5 8-- 5|---------------------------- 5 5|
G| 5------ 5------------ 5------ 5|------ 5-------------- 5------ 5|
D|---- 5-------------- 5----------|---- 5-------------- 5----------|
A| 0---------------------------- 0|------------------------------ 5|
E|---------------- 0--------------|-------------- 0----------------|
http://classicalguitartablature.blogspot.com/
E|---- 5 7---- 5---------------- 7|---- 5-- 7--10------------------|
B|---- 5 5---- 5------------------| 5-- 5-- 5-- 8------10-- 8-- 7--|
G|---- 5 5---- 5-------- 5--------| 5-- 5-- 5-- 9------ 9 9--------|
D|-------------------- 5------ 5--|----------------------10--------|
A|--------------------------------| 5-------------- 0--------------|
E|-------------- 5----------------|--------------------------------|
http://classicalguitartablature.blogspot.com/
E| 5------------ 3------------ 2 2|------------ 2 3----------------|
B| 0---------- 0------------------|------ 0------------------------|
G| 0------ 0------------ 0--------|---- 0---------------- 0--------|
D|---- 0-------------- 0----------|-------------------- 0------ 0--|
A|---------------- 5--------------|-------------- 5----------------|
E| 3---------------------------- 3|------------------------------ 0|
http://classicalguitartablature.blogspot.com/
E|------ 5------ 3------------ 2 2|-------------- 3----------------|
B|---- 0--------------------------|------------ 0-------------- 0--|
G|---- 0------ 0---------- 0------|-------- 0-------------- 0------|
D|---- 0-------------- 0----------|---- 0-------------- 0----------|
A|-------------- 2----------------|-------------- 2----------------|
E|--------------------------------| 0------------------------------|
http://classicalguitartablature.blogspot.com/
E| 7---------- 5---------------- 7|---------- 5--------------------|
B| 5---------------------- 5 8-- 5|---------------------------- 5--|
G| 5------ 5------------ 5------ 5|------ 5-------------- 5--------|
D|---- 5-------------- 5----------|---- 5-------------- 5----------|
A| 0---------------------------- 0|--------------------------------|
E|---------------- 0--------------|-------------- 0----------------|
http://classicalguitartablature.blogspot.com/
E|------------ 7 5---- 7------10--|-------------------- 7 7--------|
B|-------- 5-- 5 5---- 5------ 8--|-------------------- 5 5--------|
G|------ 5------ 5---- 5------ 9--|-------- 9---------- 5 5---- 5--|
D|---- 5------------------ 5------|----10------10------------------|
A| 5------------------------------|--------------------------------|
E|-------------- 5----------------|10------------------------------|
http://classicalguitartablature.blogspot.com/
E| 5-- 3--------------------------|--------------------------------|
B| 0------------------------------|--------------------------------|
G| 0---------- 0-------- 0--------|------ 0-------------- 5------ 4|
D|-------- 0---------- 0------ 0--|---- 0------ 0------ 5 5------ 5|
A|---------------- 5--------------|-------------- 5----------------|
E| 3------------------------------| 3---------------------------- 3|
http://classicalguitartablature.blogspot.com/
E|-------- 5-- 3------------------|------ 5---- 3------------------|
B|---- 3---------------- 3--------|---- 3---------------- 0--------|
G|-------------------- 4------ 4--| 4-------------------- 0--------|
D|--------------------------------|-------------------- 0------ 0--|
A|---------------- 5--------------|---------------- 2--------------|
E|--------------------------------| 0------------------------------|
http://classicalguitartablature.blogspot.com/
E|-------- 7-- 5------------------|------ 7-- 5 7 7---- 5----------|
B|---- 5--------------------------|---- 5-------- 5------ 7--------|
G| 5---------------------- 5------|---- 5---------- 5---------- 7 4|
D| 5------------------ 5------ 5--|---- 5------------------------ 5|
A| 0------------------------------| 5------------------------------|
E|---------------- 0--------------|---------------- 5------------ 3|
http://classicalguitartablature.blogspot.com/
E|-------- 5-- 3------------------|------ 5---- 3------------------|
B|---- 3---------------- 3--------|---- 3---------------- 0--------|
G|-------------------- 4------ 4--| 4-------------------- 0--------|
D|--------------------------------|-------------------- 0------ 0--|
A|---------------- 5--------------|---------------- 2--------------|
E|--------------------------------| 0------------------------------|
http://classicalguitartablature.blogspot.com/
E|-------- 7-- 5------------------|--------------------------------|
B|---- 5--------------------------|-------- 7---- 8------10--------|
G| 5---------------------- 5------|---- 5---------- 5------ 7------|
D| 5------------------ 5------ 5--|---- 7------ 7------ 5------ 7--|
A| 0------------------------------| 5------ 5------ 7------ 9------|
E|---------------- 0--------------|--------------------------------|
http://classicalguitartablature.blogspot.com/
E| 5------------ 3------------ 2 2|------------ 2 3----------------|
B| 0---------- 0------------------|------ 0------------------------|
G| 0------ 0------------ 0--------|---- 0---------------- 0--------|
D|---- 0-------------- 0----------|-------------------- 0------ 0--|
A|---------------- 5--------------|-------------- 5----------------|
E| 3---------------------------- 3|------------------------------ 0|
http://classicalguitartablature.blogspot.com/
E|------ 5------ 3------------ 2 2|-------------- 3----------------|
B|---- 0--------------------------|------------ 0-------------- 0--|
G|---- 0------ 0---------- 0------|-------- 0-------------- 0------|
D|---- 0-------------- 0----------|---- 0-------------- 0----------|
A|-------------- 2----------------|-------------- 2----------------|
E|--------------------------------| 0------------------------------|
http://classicalguitartablature.blogspot.com/
E| 7---------- 5---------------- 7|---------- 5------------------ 7|
B| 5---------------------- 5 8-- 5|---------------------------- 5 5|
G| 5------ 5------------ 5------ 5|------ 5-------------- 5------ 5|
D|---- 5-------------- 5----------|---- 5-------------- 5----------|
A| 0---------------------------- 0|------------------------------ 5|
E|---------------- 0--------------|-------------- 0----------------|
http://classicalguitartablature.blogspot.com/
E|---- 5 7---- 5---------------- 7|---- 5-- 7--10------------------|
B|---- 5 5---- 5------------------| 5-- 5-- 5-- 8------10-- 8-- 7--|
G|---- 5 5---- 5-------- 5--------| 5-- 5-- 5-- 9------ 9 9--------|
D|-------------------- 5------ 5--|----------------------10--------|
A|--------------------------------| 5-------------- 0--------------|
E|-------------- 5----------------|--------------------------------|
http://classicalguitartablature.blogspot.com/
E| 5------------ 3------------ 2 2|------------ 2 3----------------|
B| 0---------- 0------------------|------ 0------------------------|
G| 0------ 0------------ 0--------|---- 0---------------- 0--------|
D|---- 0-------------- 0----------|-------------------- 0------ 0--|
A|---------------- 5--------------|-------------- 5----------------|
E| 3---------------------------- 3|------------------------------ 0|
http://classicalguitartablature.blogspot.com/
E|------ 5------ 3------------ 2 2|-------------- 3----------------|
B|---- 0--------------------------|------------ 0-------------- 0--|
G|---- 0------ 0---------- 0------|-------- 0-------------- 0------|
D|---- 0-------------- 0----------|---- 0-------------- 0----------|
A|-------------- 2----------------|-------------- 2----------------|
E|--------------------------------| 0------------------------------|
http://classicalguitartablature.blogspot.com/
E| 7---------- 5---------------- 7|---------- 5--------------------|
B| 5---------------------- 5 8-- 5|---------------------------- 5--|
G| 5------ 5------------ 5------ 5|------ 5-------------- 5--------|
D|---- 5-------------- 5----------|---- 5-------------- 5----------|
A| 0---------------------------- 0|--------------------------------|
E|---------------- 0--------------|-------------- 0----------------|
http://classicalguitartablature.blogspot.com/
E|------------ 7 5---- 7------10--|--------------------------------|
B|-------- 5-- 5 5---- 5------ 8--|--------------------------------|
G|------ 5------ 5---- 5------ 9--|------ 9---------------- 9------|
D|---- 5------------------ 5------|----10------10------10------10--|
A| 5------------------------------|---------------- 0--------------|
E|-------------- 5----------------|10------------------------------|
http://classicalguitartablature.blogspot.com/
E|10----10------------------------|10----10---------------------- 8|
B|10--1310----13----------------13|----1313----13--------------12 8|
G|10--1010----10--------10--------|10--1010----10--------10------ 9|
D|----10------10------10------10--|----12------12------12----------|
A|----------------12--------------|10------------------------------|
E|10------------------------------|--------------10----------------|
http://classicalguitartablature.blogspot.com/
E|---- 7-- 8-- 7------------------|------------------------------ 8|
B|---- 8 8---- 8-------- 8----10--|---- 8--------------------------|
G|---- 9 9---- 9------ 9-------- 9|---- 9------ 9---------- 9------|
D|--------------------------------|--------10----------10------10--|
A|--------------10----------------|----------------10--------------|
E| 8------------------------------| 8------------------------------|
http://classicalguitartablature.blogspot.com/
E|---- 7 8---- 7---------------- 8|---- 7 8---- 7----------------10|
B| 8-- 8 8-------------- 8----10--| 8-- 8 8-------------- 8----10 8|
G| 8-- 8 8------------ 8----------| 8-- 8 8------------ 8----------|
D|--------------------------------|--------------------------------|
A|--------------------------------|--------------------------------|
E| 8------------ 8----------------| 8------------ 8----------------|
http://classicalguitartablature.blogspot.com/
E|--------------------------------|--------------------------------|
B|--------------------------------|-------- 7---- 8------10--------|
G| 9------ 9-------------- 9------|---- 5---------- 5------ 7------|
D|----10------10------10------10--|---- 7------ 7------ 5------ 7--|
A|---------------- 0--------------| 5------ 5------ 7------ 9------|
E|10------------------------------|--------------------------------|
http://classicalguitartablature.blogspot.com/
E| 5------------ 3------------ 2 2|------------ 2 3----------------|
B| 0---------- 0------------------|------ 0------------------------|
G| 0------ 0------------ 0--------|---- 0---------------- 0--------|
D|---- 0-------------- 0----------|-------------------- 0------ 0--|
A|---------------- 5--------------|-------------- 5----------------|
E| 3---------------------------- 3|------------------------------ 0|
http://classicalguitartablature.blogspot.com/
E|------ 5------ 3------------ 2 2|-------------- 3----------------|
B|---- 0--------------------------|------------ 0-------------- 0--|
G|---- 0------ 0---------- 0------|-------- 0-------------- 0------|
D|---- 0-------------- 0----------|---- 0-------------- 0----------|
A|-------------- 2----------------|-------------- 2----------------|
E|--------------------------------| 0------------------------------|
http://classicalguitartablature.blogspot.com/
E| 7---------- 5---------------- 7|---------- 5------------------ 7|
B| 5---------------------- 5 8-- 5|---------------------------- 5 5|
G| 5------ 5------------ 5------ 5|------ 5-------------- 5------ 5|
D|---- 5-------------- 5----------|---- 5-------------- 5----------|
A| 0---------------------------- 0|------------------------------ 5|
E|---------------- 0--------------|-------------- 0----------------|
http://classicalguitartablature.blogspot.com/
E|---- 5 7---- 5---------------- 7|---- 5-- 7--10------------------|
B|---- 5 5---- 5------------------| 5-- 5-- 5-- 8------10-- 8-- 7--|
G|---- 5 5---- 5-------- 5--------| 5-- 5-- 5-- 9------ 9 9--------|
D|-------------------- 5------ 5--|----------------------10--------|
A|--------------------------------| 5-------------- 0--------------|
E|-------------- 5----------------|--------------------------------|
http://classicalguitartablature.blogspot.com/
E| 5------------ 3------------ 2 2|------------ 2 3----------------|
B| 0---------- 0------------------|------ 0------------------------|
G| 0------ 0------------ 0--------|---- 0---------------- 0--------|
D|---- 0-------------- 0----------|-------------------- 0------ 0--|
A|---------------- 5--------------|-------------- 5----------------|
E| 3---------------------------- 3|------------------------------ 0|
http://classicalguitartablature.blogspot.com/
E|------ 5------ 3------------ 2 2|-------------- 3----------------|
B|---- 0--------------------------|------------ 0-------------- 0--|
G|---- 0------ 0---------- 0------|-------- 0-------------- 0------|
D|---- 0-------------- 0----------|---- 0-------------- 0----------|
A|-------------- 2----------------|-------------- 2----------------|
E|--------------------------------| 0------------------------------|
http://classicalguitartablature.blogspot.com/
E| 7---------- 5---------------- 7|---------- 5--------------------|
B| 5---------------------- 5 8-- 5|---------------------------- 5--|
G| 5------ 5------------ 5------ 5|------ 5-------------- 5--------|
D|---- 5-------------- 5----------|---- 5-------------- 5----------|
A| 0---------------------------- 0|--------------------------------|
E|---------------- 0--------------|-------------- 0----------------|
http://classicalguitartablature.blogspot.com/
E|------------ 7 5---- 7------10--|--------------------10--10--10--|
B|-------- 5-- 5 5---- 5------ 8--|-------------------- 8-- 8--10--|
G|------ 5------ 5---- 5------ 9--|-------- 9---------- 9-- 9-- 9--|
D|---- 5------------------ 5------|----10------10------------------|
A| 5------------------------------|---------------- 0--------------|
E|-------------- 5----------------|10------------------------------|
http://classicalguitartablature.blogspot.com/
E|--------------------------------|--------------------------------|
B|------------------------------ 3|--------------------------------|
G|------ 9------ 9------ 7------ 4|--------------------------------|
D|---- 9------ 9 9------ 5------ 5|--------------------------------|
A|10------------------------------|--------------------------------|
E|--------------10------ 7--------| 3------------------------------|
http://classicalguitartablature.blogspot.com/