To celebrate the anniversary, I am giving you (finally...) : iPhone LickByNeck !!!!!!
0 com

Just The Two Of Us (BASIC)

Bill Whiters / Grover Washngton Jnr's classic tune fingerstyle chord melody guitar BASIC arrangement played in the key of Em. Just The Two Of Us - BASIC ARRANGEMENT played in the key of Em
http://classicalguitartablature.blogspot.com/
E|--------------------------------|--------------------------------|
B|--------------------------------|--------------------------------|
G|--------------------------------|--------------------------------|
D|--------------------------------|--------------------------------|
A|---------------------- 6------ 7|-------------- 5----------------|
E| 8-------------- 7--------------|------------------------ 3------|
http://classicalguitartablature.blogspot.com/
E|--------------------------------|--------------------------------|
B|--------------------------------|--------------------------------|
G|--------------------------------|--------------------------------|
D|--------------------------------|--------------------------------|
A|------------------------ 6------| 7------------------------------|
E| 8-------------- 7--------------|--------------------------------|
http://classicalguitartablature.blogspot.com/
http://classicalguitartablature.blogspot.com/
E|--------------------------------|--------------------------------|
B|--------------------------------|--------------------------------|
G| 9-------------- 8--------------| 7-------------- 5------ 4------|
D| 9------------ 7----------------| 5-------------- 3------ 3------|
A|---------------------- 6--------| 7-------------- 5--------------|
E| 8-------------- 7--------------|------------------------ 3------|
http://classicalguitartablature.blogspot.com/
E|--------------------------------|--------------------------------|
B|--------------------------------|--------------------------------|
G| 9-------------- 8--------------| 7------------------------------|
D| 9------------ 7----------------| 5------------------------------|
A|---------------------- 6--------|------------------------------ 3|
E| 8-------------- 7--------------| 0------------------------------|
http://classicalguitartablature.blogspot.com/
E|-- 3-- 3 3-- 2---- 2------ 5 7--|------ 710--12----10------------|
B|---- 5 5 5-- 4---- 4---- 8-- 8--|------ 8 8--10----10--12--10--10|
G|---- 4 4 4-- 2---- 2---- 5-- 7--|------ 7 7--10----10--10----12 9|
D|------------------------ 7------|-- 9------------------ 9------ 9|
A|-------------- 2-------- 6------| 7------------------------------|
E|--------------------------------|--------------10------ 9------ 8|
http://classicalguitartablature.blogspot.com/
E|---------------------- 5---- 0--|--------------------------------|
B|-- 8-------------------- 8-- 8 0|--------------------------------|
G|-- 9-------- 9-- 8------ 5-- 5 0|-------- 0------ 5------ 4------|
D|---------- 9---- 7-- 7------ 7--|---- 0------ 0-- 3------ 3------|
A|------------------------ 6------|---------------- 5------------ 3|
E|---------------- 7--------------| 0---------------------- 3------|
http://classicalguitartablature.blogspot.com/
E|-- 3-- 3 3-- 2---- 2------ 5 7--|------ 710--12----10------------|
B|---- 5 5 5-- 4---- 4---- 8-- 8--|------ 8 8--10----10--12--10--10|
G|---- 4 4 4-- 2---- 2---- 5-- 7--|------ 7 7--10----10--10----12 9|
D|------------------------ 7------|-- 9------------------ 9------ 9|
A|-------------- 2-------- 6------| 7------------------------------|
E|--------------------------------|--------------10------ 9------ 8|
http://classicalguitartablature.blogspot.com/
E|---------------------- 5---- 0--|------------------------ 7 5 3--|
B|-- 8-------------------- 8-- 8 0|------------------------ 3 3----|
G|-- 9-------- 9-- 8------ 5-- 5 0|-------- 0------ 5------ 4-- 4--|
D|---------- 9---- 7-- 7------ 7--|---- 0------ 0-- 3--------------|
A|------------------------ 6------|---------------- 5--------------|
E|---------------- 7--------------| 0---------------------- 3------|
http://classicalguitartablature.blogspot.com/
E| 5 3 3----------------10------10|---- 7--1010--12-------- 7-- 5--|
B| 5 5-- 5--------------12----12 8|---- 8--1313--10-------- 3-- 3--|
G| 4-- 4 4---------- 2--12----12 7|---- 7--12----10-------- 4------|
D|------------------ 4--------10--|--------------------10----------|
A| 3---------- 3-- 2--------------|--------------------------------|
E|------------------------11------| 0------11------10------ 3------|
http://classicalguitartablature.blogspot.com/
E| 5 3 3---------------- 5--------|------------------------ 7 5 3--|
B| 5 5-- 5-------------- 8-- 8-- 5|------------------------ 3 3 3--|
G| 4-- 4 4---------- 2-- 5-- 5-- 7|---- 7---- 7-- 7-- 5---- 4 4 4--|
D|------------------ 4------ 7-- 5|---- 5---- 5-- 5-- 3------------|
A| 3---------- 3-- 2---- 6--------|-------------- 5----------------|
E|--------------------------------| 0---------------------- 3------|
http://classicalguitartablature.blogspot.com/
E| 5 3 3----------------10------10|---- 7--1010--12-------- 7-- 5--|
B| 5 5-- 5--------------12----12 8|---- 8--1313--10-------- 3-- 3--|
G| 4-- 4 4---------- 2--12----12 7|---- 7--12----10-------- 4------|
D|------------------ 4--------10--|--------------------10----------|
A| 3---------- 3-- 2--------------|--------------------------------|
E|------------------------11------| 0------11------10------ 3------|
http://classicalguitartablature.blogspot.com/
E| 5 3 3---------------- 5--------|------------------------ 7 5 3--|
B| 5 5-- 5-------------- 8-- 8-- 5|------------------------ 3 3 3--|
G| 4-- 4 4---------- 2-- 5-- 5-- 7|---- 7---- 7-- 7-- 5---- 4 4 4--|
D|------------------ 4------ 7-- 5|---- 5---- 5-- 5-- 3------------|
A| 3---------- 3-- 2---- 6--------|-------------- 5----------------|
E|--------------------------------| 0---------------------- 3------|
http://classicalguitartablature.blogspot.com/
E| 7---------- 7------ 7----------| 5---------- 5------ 5----------|
B| 8--10 8---- 8----10 8----------| 6-- 6------ 6---- 8 6----------|
G| 9-- 9 9-- 9-- 8-- 8 8------ 8--| 7-- 7-- 7-- 6------ 6------ 6--|
D|------------------ 7---- 7------|------------------ 5---- 5------|
A|--------------------------------|--------------------------------|
E| 8-------------- 7--------------| 6------------ 5----------------|
http://classicalguitartablature.blogspot.com/
E| 3-------------- 3-- 3----------|------ 3----10---------- 8------|
B| 4 6-- 4---- 4---- 6 4---- 6----| 5---- 5---- 8---------- 8------|
G| 5------ 5-- 4---- 4 4 4--------| 4---- 4---- 8---------- 8------|
D|------------------ 3------------| 5------------------ 8----------|
A|--------------------------------| 3---------- 8------------------|
E| 4-------------- 3--------------|--------------------------------|
http://classicalguitartablature.blogspot.com/
E| 7---------- 7------ 7----------| 5---------- 5------ 5----------|
B| 8--10 8---- 8----10 8----------| 6-- 6------ 6---- 8 6----------|
G| 9-- 9 9-- 9-- 8-- 8 8------ 8--| 7-- 7-- 7-- 6------ 6------ 6--|
D|------------------ 7---- 7------|------------------ 5---- 5------|
A|--------------------------------|--------------------------------|
E| 8-------------- 7--------------| 6------------ 5----------------|
http://classicalguitartablature.blogspot.com/
E| 3-------------- 3-- 3----------|------ 3----10---------- 710----|
B| 4 6-- 4---- 4---- 6 4---- 6----| 5---- 5---- 8-------------- 8--|
G| 5------ 5-- 4---- 4 4 4--------| 4---- 4------------------------|
D|------------------ 3------------| 5------------------------------|
A|--------------------------------| 3---------- 8------------------|
E| 4-------------- 3--------------|--------------------------------|
http://classicalguitartablature.blogspot.com/
E| 5 3 3----------------10------10|---- 7--1010--12-------- 7-- 5--|
B| 5 5-- 5--------------12----12 8|---- 8--1313--10-------- 3-- 3--|
G| 4-- 4 4---------- 2--12----12 7|---- 7--12----10-------- 4------|
D|------------------ 4--------10--|--------------------10----------|
A| 3---------- 3-- 2--------------|--------------------------------|
E|------------------------11------| 0------11------10------ 3------|
http://classicalguitartablature.blogspot.com/
E| 5 3 3---------------- 5--------|------------------------ 7 5 3--|
B| 5 5-- 5-------------- 8-- 8-- 5|------------------------ 3 3 3--|
G| 4-- 4 4---------- 2-- 5-- 5-- 7|---- 7---- 7-- 7-- 5---- 4 4 4--|
D|------------------ 4------ 7-- 5|---- 5---- 5-- 5-- 3------------|
A| 3---------- 3-- 2---- 6--------|-------------- 5----------------|
E|--------------------------------| 0---------------------- 3------|
http://classicalguitartablature.blogspot.com/
E| 5 3 3----------------10------10|---- 7--1010--12-------- 7-- 5--|
B| 5 5-- 5--------------12----12 8|---- 8--1313--10-------- 3-- 3--|
G| 4-- 4 4---------- 2--12----12 7|---- 7--12----10-------- 4------|
D|------------------ 4--------10--|--------------------10----------|
A| 3---------- 3-- 2--------------|--------------------------------|
E|------------------------11------| 0------11------10------ 3------|
http://classicalguitartablature.blogspot.com/
E| 5 3 3---------------- 5--------|--------------------------------|
B| 5 5-- 5-------------- 8-- 8-- 5|--------------------------------|
G| 4-- 4 4---------- 2-- 5-- 5-- 7|---- 7---- 7-- 7----------------|
D|------------------ 4------ 7-- 5|---- 5---- 5-- 5----------------|
A| 3---------- 3-- 2---- 6--------|--------------------------------|
E|--------------------------------| 0-------------- 0--------------|
http://classicalguitartablature.blogspot.com/
E|--------------------------------|--------------------------------|
B|--------------------------------|--------------------------------|
G| 9-------------- 8--------------| 7-------------- 5------ 4------|
D| 9------------ 7----------------| 5-------------- 3------ 3------|
A|---------------------- 6--------| 7-------------- 5--------------|
E| 8-------------- 7--------------|------------------------ 3------|
http://classicalguitartablature.blogspot.com/
E|--------------------------------|--------------------------------|
B|--------------------------------|--------------------------------|
G| 9-------------- 8--------------| 7------------------------------|
D| 9------------ 7----------------| 5------------------------------|
A|---------------------- 6--------|--------------------------------|
E| 8-------------- 7--------------| 0------------------------------|
http://classicalguitartablature.blogspot.com/
0 com

Hit Me Baby One More Time (BASIC)

Britney Spears' tune fingerstyle chord melody guitar BASIC arrangement played in the key of Em. Hit Me Baby One More Time - BASIC ARRANGEMENT played in the key of Em
http://classicalguitartablature.blogspot.com/
E|---- 0---------- 2--------------|--------------------------------|
B| 0-- 0-------- 5------------ 5--|-------- 5---- 5 5---- 5--------|
G| 9-- 9---------- 2---------- 2--|-------- 2---- 2 2---- 2--------|
D| 9-- 9---------- 4---------- 2--|---- 2-- 2---- 2-- 2-- 2--------|
A| 7------------ 5------------ 4--|------------------ 4-------- 4--|
E| 0------------------------------|--------------------------------|
http://classicalguitartablature.blogspot.com/
E|---- 0---------- 2-- 2----------|--------------------------------|
B| 0-- 0---------- 5---------- 5--|-------- 5---- 5-- 5---- 5------|
G| 9-- 9---------- 2-- 2------ 2--|-------- 2---- 2-- 2---- 2------|
D| 9-- 9---------- 4---------- 2--|---- 2-- 2---- 2-- 2---- 2------|
A| 7-------------- 5---------- 4--|-------------------- 4------ 4--|
E| 0------------------------------|--------------------------------|
http://classicalguitartablature.blogspot.com/
http://classicalguitartablature.blogspot.com/
E|--------------------------------|--------------------------------|
B| 0------ 0---- 0 0---- 0--------| 0------ 0---- 0 0------ 0------|
G| 0------ 0---- 0 0---- 0--------| 0------ 0---- 0 0------ 0------|
D| 0------ 0---- 0 0---- 0--------| 0------ 0---- 0-- 0---- 0------|
A|--------------------------------|--------------------------------|
E| 0-- 0------ 0------ 0------ 0--| 0-- 0------ 0------ 0------ 0--|
http://classicalguitartablature.blogspot.com/
E|---- 0 0---- 0-- 0-- 0------ 0--|--------------------------------|
B|---- 0-- 0-- 0-- 0-- 0------ 0--| 7-- 4 4-------------------- 0--|
G|---- 0-- 0-- 0-- 0-- 0------ 0--| 4-- 4-- 4-- 4-------------- 0--|
D|--------------------------------| 4-- 4-- 4-- 4------ 7------ 0--|
A|--------------------------------| 6-- 6-- 6-- 6 6---- 6-- 6------|
E| 0-- 0-- 0-- 0-- 0-- 0-- 0-- 0--|--------------------------------|
http://classicalguitartablature.blogspot.com/
E|--------------------------------|--------------------------------|
B|-------- 0-- 0---- 0-------- 3 5|---- 5-- 7 8---- 7--------------|
G|-------- 0-- 0---- 0-------- 0 6|---- 6-- 6-- 6-- 8---- 9--------|
D|-------- 0---- 0-- 0-------- 0--| 7-- 7-- 7-- 7-- 7---- 7--------|
A|--------------------------------|--------------------------------|
E| 3-- 3------ 3-- 3------ 3------| 5-- 5-- 5-- 5-- 7-- 7-- 7-- 7--|
http://classicalguitartablature.blogspot.com/
E|---- 0 0---- 0-- 0-- 0------ 0--|--------------------------------|
B|---- 0-- 0-- 0-- 0-- 0------ 0--| 7-- 4 4-------------------- 0--|
G|---- 0-- 0-- 0-- 0-- 0------ 0--| 4-- 4-- 4-- 4-------------- 0--|
D|--------------------------------| 4-- 4-- 4-- 4------ 7------ 0--|
A|--------------------------------| 6-- 6-- 6-- 6 6---- 6-- 6------|
E| 0-- 0-- 0-- 0-- 0-- 0-- 0-- 0--|--------------------------------|
http://classicalguitartablature.blogspot.com/
E|--------------------------------|--------------------------------|
B|-------- 0-- 0---- 0-------- 3 5|---- 5-- 7 8---- 7--------------|
G|-------- 0-- 0---- 0-------- 0 6|---- 6-- 6-- 6-- 8---- 9--------|
D|-------- 0---- 0-- 0-------- 0--| 7-- 7-- 7-- 7-- 7---- 7--------|
A|--------------------------------|--------------------------------|
E| 3-- 3------ 3-- 3------ 3------| 5-- 5-- 5-- 5-- 7-- 7-- 7-- 7--|
http://classicalguitartablature.blogspot.com/
E| 3------ 3---- 3-- 3-- 5-- 3----|--------------------------------|
B| 0------ 0---- 0-- 0---- 0 0----| 7------ 7---- 7-- 7---- 5-- 7--|
G| 0------ 0---- 0-- 0---- 0-- 0--| 4------ 4---- 4-- 4---- 5-- 5--|
D|--------------------------------| 7-- 7-- 7---- 7-- 7---- 7-- 7--|
A|--------------------------------| 6-------------- 6-- 6-- 6-- 6--|
E| 0-- 0-- 0------ 0-- 0-- 0-- 0--|--------------------------------|
http://classicalguitartablature.blogspot.com/
E| 3------ 3---- 3 3---- 5-- 3-- 5|-- 7---- 8-- 7--12-- 7----------|
B| 3------ 3---- 3 3---- 3-- 3-- 5|-- 5---- 5-- 5-- 7-- 7--10-- 8--|
G| 0------ 0---- 0 0---- 0-- 0-- 6|-- 6---- 6-- 6-- 8-- 8----------|
D|--------------------------------|------------------------ 7-- 7--|
A|--------------------------------|--------------------------------|
E| 3-- 3-- 3-- 3 3-- 3-- 3---- 3--| 5-- 5-- 5-- 5-- 7-- 7-- 7-- 7--|
http://classicalguitartablature.blogspot.com/
E|-- 0---- 0-- 0-- 0-------- 0----|---------------- 7------ 5------|
B|-- 0---- 0-- 0-- 0-------- 0-- 4|-- 5-- 7-------- 4------ 4-- 8--|
G|-- 0---- 0-- 0-- 0-------- 0-- 4|-- 4-- 4-------- 4------ 4------|
D|------------------------------ 4|-- 4-- 4------------------------|
A|------------------------------ 6|-- 6-- 6---- 6-- 6-- 6-- 6-- 6--|
E| 0-- 0-- 0-- 0---- 0-- 0-- 0----|--------------------------------|
http://classicalguitartablature.blogspot.com/
E|---- 3 3---- 3---- 3------ 3-- 5|-- 7---- 8 7------12----11--12--|
B|---- 3 3---- 3---- 3------ 3-- 5|-- 5---- 5-- 5------ 7----------|
G|---- 0-- 0-- 0---- 0------ 0-- 6|-- 6---- 6-- 6---- 8---- 8-- 8--|
D|--------------------------------|--------------------------------|
A|--------------------------------|--------------------------------|
E| 3-- 3-- 3-- 3-- 3 3-- 3------ 5|---- 5-- 5-- 5-- 7-- 7-- 7-- 7--|
http://classicalguitartablature.blogspot.com/
E|-- 0---- 0-- 0-- 0-------- 0----|-------------------- 5-- 7-- 7--|
B|-- 0---- 0-- 0-- 0-------- 0-- 4|-- 5-- 7-------- 8-- 8------ 3--|
G|-- 0---- 0-- 0-- 0-------- 0-- 4|-- 4-- 4-------- 5---------- 4--|
D|------------------------------ 4|-- 4-- 4------------------------|
A|------------------------------ 6|-- 6-- 6---- 6-- 6-- 6-- 6------|
E| 0-- 0-- 0-- 0---- 0-- 0-- 0----|--------------------------------|
http://classicalguitartablature.blogspot.com/
E|------------ 5 3-------------- 7|-- 8---- 7-- 8 7---- 8----------|
B|-------------- 3---------- 3-- 5|---------------- 7-- 7----------|
G|-------------- 4---------- 4-- 6|---------------- 8-- 8----------|
D|--------------------------------|--------------------------------|
A|--------------------------------|--------------------------------|
E| 3-- 3-- 3-- 3-- 3-- 3-- 3-- 3 5|---------------- 7---------- 7--|
http://classicalguitartablature.blogspot.com/
E|---- 0---------- 2-- 2----------|--------------------------------|
B| 0-- 0---------- 5---------- 5--|-------- 5---- 5-- 5---- 5------|
G| 9-- 9---------- 2-- 2------ 2--|-------- 2---- 2-- 2---- 2------|
D| 9-- 9---------- 4---------- 2--|---- 2-- 2---- 2-- 2---- 2------|
A| 7-------------- 5---------- 4--|-------------------- 4------ 4--|
E| 0------------------------------|--------------------------------|
http://classicalguitartablature.blogspot.com/
E|---- 0---------- 2-- 2----------|--------------------------------|
B| 0-- 0---------- 5---------- 5--|-------- 5---- 5-- 5---- 5------|
G| 9-- 9---------- 2-- 2------ 2--|-------- 2---- 2-- 2---- 2------|
D| 9-- 9---------- 4---------- 2--|---- 2-- 2---- 2-- 2---- 2------|
A| 7-------------- 5---------- 4--|-------------------- 4------ 4--|
E| 0------------------------------|--------------------------------|
http://classicalguitartablature.blogspot.com/
E|---- 0---------- 2-- 2----------|--------------------------------|
B| 0-- 0---------- 5---------- 5--|-------- 5---- 5-- 5---- 5------|
G| 9-- 9---------- 2-- 2------ 2--|-------- 2---- 2-- 2---- 2------|
D| 9-- 9---------- 4---------- 2--|---- 2-- 2---- 2-- 2---- 2------|
A| 7-------------- 5---------- 4--|-------------------- 4------ 4--|
E| 0------------------------------|--------------------------------|
http://classicalguitartablature.blogspot.com/
E|-- 2----------------------------|--------------------------------|
B|-- 5----------------------------|--------------------------------|
G| 4------------------------------|--------------------------------|
D| 2------------------------------|--------------------------------|
A| 2------------------------------|--------------------------------|
E| 0------------------------------|--------------------------------|
http://classicalguitartablature.blogspot.com/
0 com

The One You Love (BASIC)

Glenn Frey's tune fingerstyle chord melody guitar BASIC arrangement played in the key of G. The One You Love - Glenn Frey - BASIC ARRANGEMENT played in the key of G
http://classicalguitartablature.blogspot.com/
E|------------------------ 3-- 5--| 7-- 7---- 7--------------------|
B|---------------- 3-- 5----------| 5-- 5---- 5-- 8-- 5------ 3----|
G|-------- 0------ 0--------------| 5-- 5---- 5------ 5-------- 4--|
D|---- 0------ 0-- 0--------------|-------------- 5-- 5------ 4----|
A|--------------------------------|--------------------------------|
E| 3-------------- 3--------------| 5---------- 5---------------- 3|
http://classicalguitartablature.blogspot.com/
E|---------------------- 3-- 5-- 7|---- 7--------------------------|
B|---- 3-------- 3-- 5-- 3-- 3----| 5-- 5 8-- 5-- 8---- 8----10----|
G|---- 4-------- 4-- 4-- 4-- 4----| 5-- 5 5-------- 5-- 5------ 7--|
D|---- 4-------- 4-- 4------------|------ 5-- 5-- 5---- 5------ 9--|
A|--------------------------------|--------------------------------|
E|---------- 3-- 3----------------| 5-------------- 5--------------|
http://classicalguitartablature.blogspot.com/
http://classicalguitartablature.blogspot.com/
E|---- 7---------------- 3-- 5-- 7|---- 7--------------------------|
B|----10------ 0-- 3-- 5 3-- 5----| 8-- 8-------- 8----------------|
G|---- 7------ 0-- 4-- 4 4-- 4----| 9-- 9-------- 9-- 9------ 7----|
D|------------ 0 4---- 4----------|-------------- 9---------- 7----|
A|10------------------------------|--------------------------------|
E|---------------- 3--------------| 8---------- 8-- 8------------ 7|
http://classicalguitartablature.blogspot.com/
E|------------------------------ 7|---- 7-------------------- 3----|
B|---------------------- 8--10----| 5------ 8-- 5 8-- 8------ 3----|
G|---- 7---- 7-- 7-- 9------------| 5-- 5-------- 5-- 5------ 0----|
D|---- 7---- 7-- 7----------------|-------------- 5-- 5------------|
A|--------------------------------|-------------- 5-- 5------------|
E|---------- 7-- 0----------------| 5------------------------------|
http://classicalguitartablature.blogspot.com/
E|------------------------12--10--| 7 3 5-- 3------ 5-- 7-- 5-- 3--|
B|---- 3------------------12--10--| 3-- 3 5 3------ 3-- 3-- 3-- 3--|
G|---- 0--------------12----------| 4 4---- 4-- 4------ 4-- 4-- 4--|
D|---- 0--------------------------|--------------------------------|
A|--------------10----------------|--------------------------------|
E| 3-------- 3--------------------| 3------ 3----------------------|
http://classicalguitartablature.blogspot.com/
E|--------------------------------|---------------- 5-- 7-- 5-- 3--|
B| 5-- 5------ 5 8---- 8------ 5--|---- 3---- 3---- 3-- 3-- 3-- 3--|
G| 5-- 5------ 5-- 5-- 5------ 4--|---- 4------ 4-- 4-- 4 4---- 4--|
D| 5-- 5------ 5 5---- 5------ 5--|---- 5------ 5------------------|
A|--------------------------------|--------------------------------|
E| 5---------- 5-------------- 3--|------------ 3------------------|
http://classicalguitartablature.blogspot.com/
E|---------------------------- 5--|-- 7---------- 5-- 7---- 5-- 3--|
B| 5---- 8-- 5-- 8-- 8-------- 3--|-- 3------ 3-- 3-- 3---- 3-- 3--|
G| 5---- 5-- 5-- 5------------ 4--|-- 4---- 4---- 4-- 4---- 4-- 4--|
D| 5-- 5-- 5 5-- 5-- 5------------|--------------------------------|
A|--------------------------------|--------------------------------|
E| 5-------------- 5---------- 3--|-------------- 3----------------|
http://classicalguitartablature.blogspot.com/
E|------ 3------ 3-- 3------ 0----|-------------- 5-- 7-- 5-- 3----|
B| 5-- 5 5-- 5-- 5-- 5------ 3----|---- 3------ 3 0---- 0 0-- 0----|
G| 4-- 4 4-- 4-- 4-- 4------ 2----|---- 2------ 2 0---- 0 0-- 0----|
D| 5-- 5---- 5--------------------|---- 0------ 0------------------|
A| 3------------ 3-------------- 2|------------ 2------------------|
E|--------------------------------|---------------- 0--------------|
http://classicalguitartablature.blogspot.com/
E|-------------------------- 3----|--------------------------------|
B| 5---- 5 8-- 5-- 8-- 8------ 3--|---- 3------------------ 3------|
G| 5---- 5 5-- 5-- 5-- 5------ 0--|---- 0-------------- 0------ 0--|
D| 5---- 5 5-- 5-- 5-- 5----------|---- 0---------- 0--------------|
A|---------------- 5--------------|--------------------------------|
E| 5------------------------------| 3---------- 3------------------|
http://classicalguitartablature.blogspot.com/
E|---------------------- 7--------|--------------------1214------12|
B|------------------------------15|----15------15----12--12------13|
G|------ 4------------------------|14--14------14----14--14--14--12|
D|---- 4---- 4-------- 4---- 4----|12--12------12------------------|
A|--------------------------------|14----------14---------------- 0|
E| 3------------ 3----------------|--------------------------------|
http://classicalguitartablature.blogspot.com/
E|--------------------------------|------------------12--14--12----|
B|--15------12--------------------|15--1515--15--15----------10----|
G|--12------12------1412------12--|14--1414--14--14----------11----|
D|--14------14------14--14--------|12--1212--12--12----------------|
A|------------ 0------------------|14------------14----------------|
E|--------------------------------|------------------------------10|
http://classicalguitartablature.blogspot.com/
E|--------------------------------|---------------- 5-- 7-- 5------|
B|------10------------------------|---------------------------- 8--|
G|--11--------11------------------|-------- 5----------------------|
D|--------------------------------|---- 5------ 5------------------|
A|---------------------------- 5--| 5------------------------------|
E|------------------------------ 5|--------------------------------|
http://classicalguitartablature.blogspot.com/
E|--------------------------------|---------------- 5-- 7-- 5-- 3--|
B| 5-- 5------ 5 8---- 8------ 5--|---- 3---- 3---- 3-- 3-- 3-- 3--|
G| 5-- 5------ 5-- 5-- 5------ 4--|---- 4------ 4-- 4-- 4 4---- 4--|
D| 5-- 5------ 5 5---- 5------ 5--|---- 5------ 5------------------|
A|--------------------------------|--------------------------------|
E| 5---------- 5-------------- 3--|------------ 3------------------|
http://classicalguitartablature.blogspot.com/
E|---------------------------- 5--|-- 7---------- 5-- 7---- 5-- 3--|
B| 5---- 8-- 5-- 8-- 8-------- 3--|-- 3------ 3-- 3-- 3---- 3-- 3--|
G| 5---- 5-- 5-- 5------------ 4--|-- 4---- 4---- 4-- 4---- 4-- 4--|
D| 5-- 5-- 5 5-- 5-- 5------------|--------------------------------|
A|--------------------------------|--------------------------------|
E| 5-------------- 5---------- 3--|-------------- 3----------------|
http://classicalguitartablature.blogspot.com/
E|------------------12------12----|--10---------- 5-- 7-- 5-- 3----|
B|------ 8-------- 8-------- 7----|---- 7-------- 0---- 0 0-- 0----|
G| 9---- 9-- 9-------------- 7----|---- 7---- 7-- 0---- 0 0-- 0----|
D| 9---- 9------ 9------ 9--------|-------- 7----------------------|
A|--------------------------------|--------------------------------|
E| 8------------ 8-------------- 7|---------------- 0--------------|
http://classicalguitartablature.blogspot.com/
E|---------------------------- 3--|------------------------ 3-- 5--|
B| 5---- 5 8-- 5-- 8-- 8------ 3--|---- 3-------- 3---- 5----------|
G| 5---- 5 5-- 5-- 5-- 5------ 4--|------ 4-------- 4--------------|
D| 5---- 5 5-- 5-- 5-- 5----------|------ 5-------- 5-- 5----------|
A|---------------- 5--------------|--------------------------------|
E| 5------------------------------| 3---------- 3------------------|
http://classicalguitartablature.blogspot.com/
E| 7-- 7---- 7--------------------|---------------------- 3-- 5-- 7|
B| 5-- 5---- 5-- 8-- 5------ 3----|---- 3-------- 3-- 5-- 3-- 3----|
G| 5-- 5---- 5------ 5-------- 4--|---- 4-------- 4-- 4-- 4-- 4----|
D|-------------- 5-- 5------ 4----|---- 4-------- 4-- 4------------|
A|--------------------------------|--------------------------------|
E| 5---------- 5---------------- 3|---------- 3-- 3----------------|
http://classicalguitartablature.blogspot.com/
E|---- 7--------------------------|---- 7---------------- 3-- 5-- 7|
B| 5-- 5 8-- 5-- 8---- 8----10----|----10------ 0-- 3-- 5 3-- 5----|
G| 5-- 5 5-------- 5-- 5------ 7--|---- 7------ 0-- 4-- 4 4-- 4----|
D|------ 5-- 5-- 5---- 5------ 9--|------------ 0 4---- 4----------|
A|--------------------------------|10------------------------------|
E| 5-------------- 5--------------|---------------- 3--------------|
http://classicalguitartablature.blogspot.com/
E|---- 7--------------------------|------------------------------ 7|
B| 8-- 8-------- 8----------------|---------------------- 8--10----|
G| 9-- 9-------- 9-- 9------ 7----|---- 7---- 7-- 7-- 9------------|
D|-------------- 9---------- 7----|---- 7---- 7-- 7----------------|
A|--------------------------------|--------------------------------|
E| 8---------- 8-- 8------------ 7|---------- 7-- 0----------------|
http://classicalguitartablature.blogspot.com/
E|---- 7---------------------- 3--|--------------------------------|
B| 5------ 8-- 5 8-- 8-------- 3--|--------------------------------|
G| 5-- 5-------- 5-- 5-------- 0--|--------------------------------|
D|-------------- 5-- 5------------|--------------------------------|
A|-------------- 5-- 5------------|--------------------------------|
E| 5-------------------------- 3--|--------------------------------|
http://classicalguitartablature.blogspot.com/