To celebrate the anniversary, I am giving you (finally...) : iPhone LickByNeck !!!!!!
0 com

And I Love Her (BASIC)

The Beatles' tune fingerstyle chord melody guitar BASIC arrangement played in the key of D. And I Love Her - BEATLES - BASIC ARRANGEMENT played in the key of D
http://classicalguitartablature.blogspot.com/
E|--------------------------------|--------------------------------|
B|---------------------- 3-- 2----| 0------ 0----------------------|
G|-------------------- 2----------| 0---- 0------------ 0------ 0--|
D|--------------------------------|---- 2-------------- 2------ 2--|
A|--------------------------------|--------------------------------|
E|--------------------------------| 0---------- 0-- 0------ 0------|
http://classicalguitartablature.blogspot.com/
E|--------------------------------|--------------------------------|
B|-------- 0-------------- 3-- 2--| 0------ 0----------------------|
G|------ 0------------ 2----------| 2---- 2------------ 2------ 2--|
D|---- 2--------------------------|---- 4-------------- 4------ 4--|
A|--------------------------------| 5-------- 5-- 5------ 5------ 5|
E| 0---------- 0-- 0--------------|--------------------------------|
http://classicalguitartablature.blogspot.com/
http://classicalguitartablature.blogspot.com/
E|--------------------------------|--------------------------------|
B|-------- 0-------------- 3-- 2--| 0------ 0----------------------|
G|------ 2---------- 2------------| 0---- 0------------ 0------ 0--|
D|---- 4------------ 4------------|-- 2---------------- 2------ 2--|
A|------------ 5-- 5--------------|--------------------------------|
E|--------------------------------| 0---------- 0-- 0------ 0------|
http://classicalguitartablature.blogspot.com/
E|--------------------------------|--------------------------------|
B|------ 0---------------- 3-- 2--| 0------ 0----------------------|
G|---- 0-------------- 2-- 0------| 2---- 2------------ 2------ 2--|
D|-- 2-------------------- 2------|---- 4-------------- 4------ 4--|
A|--------------------------------| 5-------- 5-- 5------ 5------ 5|
E| 0---------- 0-- 0------ 0------|--------------------------------|
http://classicalguitartablature.blogspot.com/
E|--------------------------------|-------- 0------ 2-- 3-------- 9|
B|-------- 0-------------- 3-- 2--| 0-------------- 0-- 0------ 0 7|
G|------ 2---------- 2------------|------ 0-------- 0-- 0------ 0--|
D|---- 4------------ 4------------|---- 0---------------------- 0--|
A|------------ 5-- 5--------------|--------------------------------|
E|--------------------------------| 0---------- 0-- 0------ 0------|
http://classicalguitartablature.blogspot.com/
E|-- 7--------10------------------|------ 0-------- 2-- 3------ 9--|
B|--------------------------------|---------------- 0-- 0------ 7--|
G| 7------ 7-------- 7------ 7----|------ 0------------ 0------ 7--|
D|------ 9------------ 9------ 9--|-- 2----------------------------|
A|--------------------------------|--------------------------------|
E| 7-------------- 7------ 7---- 0|------------ 0-- 0------ 0---- 7|
http://classicalguitartablature.blogspot.com/
E|---- 7--------------------------|-------- 0------ 2-- 3-------- 9|
B|------------ 7------------------| 0-------------- 0-- 0------ 0 7|
G|-------- 7-------- 7-------- 7--|------ 0-------- 0-- 0------ 0--|
D|------ 9---------- 9-------- 9--|---- 0---------------------- 0--|
A|--------------------------------|--------------------------------|
E|-------------- 7----------------| 0---------- 0-- 0------ 0------|
http://classicalguitartablature.blogspot.com/
E|-- 7--------10------------------|--------10---- 7----------------|
B|--------------------------------|------ 8---------- 8-------- 7--|
G| 7------ 7-------- 7------ 7----|-- 7------------------------ 6--|
D|------ 9------------ 9------ 9--|---------------------------- 7--|
A|--------------------------------|10---------------------------- 0|
E| 7-------------- 7------ 7------|---------- 7----------10--------|
http://classicalguitartablature.blogspot.com/
E|-- 0----------------------------| 2------------------------------|
B|--------------------------------| 3------ 3----------------------|
G|------ 6---------- 4-------- 4--| 2---- 2-------- 2---------- 2--|
D|---- 7-------- 7-------- 7------|---- 4---------- 4---------- 4--|
A|------------ 4------------------| 5------------------------------|
E|---------------------- 0--------|------------ 2------ 2-- 5------|
http://classicalguitartablature.blogspot.com/
E|--------------------------------|---------- 2-- 2---- 2----------|
B|------ 3---------------- 3-- 2--|-------- 3---------- 3-------- 7|
G|------ 2------------ 2-- 2-- 2--|------ 4------ 4------------ 4 6|
D|---- 4-------------- 4-- 4-- 4--|-- 4------------------------ 4--|
A| 5---------------------------- 2|---------------- 2------ 2------|
E|------------ 2---------- 5------|--------------------------------|
http://classicalguitartablature.blogspot.com/
E|--------------------------------|------ 9-------------------- 5--|
B|---- 5------ 8------------------|----------------10-- 7------ 2--|
G|-------- 6-------- 6-------- 6--|---- 7---------- 7---------- 2--|
D| 7---- 7---------- 7-------- 7--|-- 9------------ 9-- 9----------|
A|--------------------------------|--------------------------------|
E| 5------------ 5-------- 5------| 7---------- 7-- 7------ 7------|
http://classicalguitartablature.blogspot.com/
E|--------------------------------|------ 9-------------------- 5--|
B|-------- 2----------------------|----------------10-- 7------ 2--|
G|------ 2------------ 2------ 2--|---- 7---------- 7---------- 2--|
D|---- 4-------------- 4------ 4--|-- 9------------ 9-- 9----------|
A|--------------------------------|--------------------------------|
E| 2---------- 2-- 2------ 2------| 7---------- 7-- 7------ 7------|
http://classicalguitartablature.blogspot.com/
E|---------- 2------ 5------------|-- 0----------------------------|
B|------ 2-- 2------ 2---------- 7|--------------------------------|
G|------ 2---- 2---- 2---------- 6|-------- 6---------- 6------ 6--|
D|-- 4---------------------- 4----| 7-- 7-------------- 7------ 7--|
A|--------------------------------| 0---------- 4------------------|
E| 2------------ 2-------- 2------|------------------------ 0------|
http://classicalguitartablature.blogspot.com/
E|--------------------------------|-------- 0------ 2-- 3-------- 9|
B|------------------------ 3-- 2--| 0-------------- 0-- 0------ 0 7|
G|------ 2------------ 2-- 2-- 2--|------ 0-------- 0-- 0------ 0--|
D|---- 2-- 2---------- 2-- 2-- 2--|---- 0---------------------- 0--|
A| 0---------- 4------------------|--------------------------------|
E|------------------------ 0------| 0---------- 0-- 0------ 0------|
http://classicalguitartablature.blogspot.com/
E|-- 7--------10------------------|------ 0-------- 2-- 3------ 9--|
B|--------------------------------|---------------- 0-- 0------ 7--|
G| 7------ 7-------- 7------ 7----|------ 0------------ 0------ 7--|
D|------ 9------------ 9------ 9--|-- 2----------------------------|
A|--------------------------------|--------------------------------|
E| 7-------------- 7------ 7---- 0|------------ 0-- 0------ 0---- 7|
http://classicalguitartablature.blogspot.com/
E|---- 7--------------------------|-------- 0------ 2-- 3-------- 9|
B|------------ 7------------------| 0-------------- 0-- 0------ 0 7|
G|-------- 7-------- 7-------- 7--|------ 0-------- 0-- 0------ 0--|
D|------ 9---------- 9-------- 9--|---- 0---------------------- 0--|
A|--------------------------------|--------------------------------|
E|-------------- 7----------------| 0---------- 0-- 0------ 0------|
http://classicalguitartablature.blogspot.com/
E|-- 7--------10------------------|--------10---- 7----------------|
B|--------------------------------|------ 8---------- 8-------- 7--|
G| 7------ 7-------- 7------ 7----|-- 7------------------------ 6--|
D|------ 9------------ 9------ 9--|---------------------------- 7--|
A|--------------------------------|10---------------------------- 0|
E| 7-------------- 7------ 7------|---------- 7----------10--------|
http://classicalguitartablature.blogspot.com/
E|-- 0----------------------------| 2------------------------------|
B|--------------------------------| 3------ 3----------------------|
G|------ 6---------- 4-------- 4--| 2---- 2-------- 2---------- 2--|
D|---- 7-------- 7-------- 7------|---- 4---------- 4---------- 4--|
A|------------ 4------------------| 5------------------------------|
E|---------------------- 0--------|------------ 2------ 2-- 5------|
http://classicalguitartablature.blogspot.com/
E|--------------------------------|--------------------------------|
B|------ 3---------------- 3-- 2--| 0------ 0----------------------|
G|------ 2------------ 2-- 2-- 2--| 0---- 0------------ 0------ 0--|
D|---- 4-------------- 4-- 4-- 4--|-- 2---------------- 2------ 2--|
A| 5------------------------------|--------------------------------|
E|------------ 2---------- 5------| 0---------- 0-- 0------ 0------|
http://classicalguitartablature.blogspot.com/
E|--------------------------------|--------------------------------|
B|------ 0---------------- 3-- 2--| 0------ 0----------------------|
G|---- 0-------------- 2-- 0------| 2---- 2------------ 2------ 2--|
D|-- 2-------------------- 2------|---- 4-------------- 4------ 4--|
A|--------------------------------| 5-------- 5-- 5------ 5------ 5|
E| 0---------- 0-- 0------ 0------|--------------------------------|
http://classicalguitartablature.blogspot.com/
E|--------------------------------|--------------------------------|
B|-------- 0-------------- 3-- 2--| 0------ 0----------------------|
G|------ 2---------- 2------------| 0---- 0------------ 0------ 0--|
D|---- 4------------ 4------------|-- 2---------------- 2------ 2--|
A|------------ 5-- 5--------------|--------------------------------|
E|--------------------------------| 0---------- 0-- 0------ 0------|
http://classicalguitartablature.blogspot.com/
E|--------------------------------|--------------------------------|
B|------ 0---------------- 3-- 2--|---- 0--------------------------|
G|---- 0-------------- 2-- 0------|-- 4----------------------------|
D|-- 2-------------------- 2------|-- 4----------------------------|
A|--------------------------------| 2------------------------------|
E| 0---------- 0-- 0------ 0------|--------------------------------|
http://classicalguitartablature.blogspot.com/
0 com

Can't Buy Me Love (BASIC)

The Beatles' tune fingerstyle chord melody guitar BASIC arrangement played in the key of C. Can't Buy Me Love - The Beatles - BASIC ARRANGEMENT played in the key of C
http://classicalguitartablature.blogspot.com/
E|--------------------------------|--------------------------------|
B|---------------- 5-- 8------ 8--|-------- 8---------- 8------ 5--|
G|-------- 5------------------ 7--|-------- 7---------- 7------ 5--|
D|---------------------------- 5--|------------ 5------ 5------ 5--|
A|--------------------------------| 7------------------------------|
E|--------------------------------|---------------- 7------------ 5|
http://classicalguitartablature.blogspot.com/
E|--------------------------------|--------------------------------|
B|-------------- 5---- 8------ 8--|-------- 8---------- 8------ 5--|
G|------ 5------ 5---- 5------ 7--|-------- 7---------- 7------ 5--|
D|-------------------- 5------ 5--|------------ 5------ 5------ 5--|
A|-------------- 7----------------| 7------------------------------|
E|--------------------------------|---------------- 7--------------|
http://classicalguitartablature.blogspot.com/
http://classicalguitartablature.blogspot.com/
E|--------------------------------|--------------------------------|
B|-------------- 5---- 8------ 8--|------ 8------------ 8------ 5--|
G|------ 5------ 5---- 5------ 5--|------ 5------------ 5------ 4--|
D|------ 5------ 5---- 5------ 7--|------ 7---- 7------ 7------ 3--|
A|---------------- 7--------------| 5------------------------------|
E| 5------------------------------|---------------- 5--------------|
http://classicalguitartablature.blogspot.com/
E|---------------------------- 3--|------ 3------------------------|
B|---------------------------- 5--|-------------- 6---- 4------ 3--|
G|------------ 4-------------- 3--|---- 3---------------------- 0--|
D|-------- 3---------- 3----------|---------------------------- 2--|
A|---------------- 5--------------| 3------------------------------|
E| 3------------------------------|-------------- 3------ 6--------|
http://classicalguitartablature.blogspot.com/
E|--------------------------------|--------------------------------|
B|---- 1------ 1-------------- 1--| 1------------------ 1------ 1--|
G|--------------------------------|---- 0------ 3------------------|
D|------ 2------------ 2----------|-------- 2-- 2------------------|
A| 3-------------------- 1--------| 3---------------------- 1------|
E|-------------- 3----------------|---------------- 3--------------|
http://classicalguitartablature.blogspot.com/
E|------------------------------ 3|-------- 3---- 1----------------|
B|------------------------------ 1|-------------- 1-------- 4-- 3--|
G|-------- 3-------------------- 2|---------------------------- 2--|
D|---- 2------ 2------ 2----------|---- 1-------------- 1------ 1--|
A| 3---------------------- 1------|---------------- 3--------------|
E|---------------- 3------------ 1|--------------------------------|
http://classicalguitartablature.blogspot.com/
E|--------------------------------|--------------------------------|
B|---- 1------ 1------------------| 1------------------ 1------ 1--|
G|---- 2------ 2-------- 2--------|---- 0------ 3------------------|
D|------------ 1------ 1------ 1--|-------- 2-- 2------------------|
A|---------------- 3--------------| 3---------------------- 1------|
E| 1------------------------------|---------------- 3--------------|
http://classicalguitartablature.blogspot.com/
E|--------------------------------|---- 3------ 3-- 3-- 3----------|
B|--------------------------------|---- 3------ 3-- 3-- 3----------|
G|-------- 3----------------------|---- 4------ 4-------------- 4--|
D|---- 2------ 2------ 2----------|------------------------ 3------|
A| 3---------------------- 1------|---------------- 5--------------|
E|---------------- 3------------ 3|--------------------------------|
http://classicalguitartablature.blogspot.com/
E|---- 1---------- 1--------------|---- 3------ 3------------------|
B|---- 1------ 4------ 4----------|---- 3------ 3-- 6-- 4------ 1--|
G|---- 2------ 2-- 2-- 2----------|---- 4------ 4-- 4-- 4------ 3--|
D|------------ 1-------------- 1--|---------------- 3---------- 2--|
A|---------------- 3--------------|---------------- 5--------------|
E| 1------------------------------| 3------------------------------|
http://classicalguitartablature.blogspot.com/
E|---------------------------- 3--|------ 3------------------------|
B|---------------------------- 5--|-------------- 6---- 4------ 3--|
G|---- 3------ 3-------------- 3--|---- 3---------------------- 0--|
D|---- 2------ 2------ 2------ 2--|---------------------------- 2--|
A| 3---------------------- 1------| 3------------------------------|
E|---------------- 3--------------|-------------- 3------ 6--------|
http://classicalguitartablature.blogspot.com/
E|--------------------------------|--------------------------------|
B|---- 1------ 1-------------- 1--| 1------------------ 1------ 1--|
G|--------------------------------|---- 0------ 3------------------|
D|------ 2------------ 2----------|-------- 2-- 2------------------|
A| 3-------------------- 1--------| 3---------------------- 1------|
E|-------------- 3----------------|---------------- 3--------------|
http://classicalguitartablature.blogspot.com/
E|------------------------------ 3|-------- 3---- 1----------------|
B|------------------------------ 1|-------------- 1-------- 4-- 3--|
G|-------- 3-------------------- 2|---------------------------- 2--|
D|---- 2------ 2------ 2----------|---- 1-------------- 1------ 1--|
A| 3---------------------- 1------|---------------- 3--------------|
E|---------------- 3------------ 1|--------------------------------|
http://classicalguitartablature.blogspot.com/
E|--------------------------------|--------------------------------|
B|---- 1------ 1------------------| 1------------------ 1------ 1--|
G|---- 2------ 2-------- 2--------|---- 0------ 3------------------|
D|------------ 1------ 1------ 1--|-------- 2-- 2------------------|
A|---------------- 3--------------| 3---------------------- 1------|
E| 1------------------------------|---------------- 3--------------|
http://classicalguitartablature.blogspot.com/
E|--------------------------------|---- 3------ 3-- 3-- 3----------|
B|--------------------------------|---- 3------ 3-- 3-- 3----------|
G|-------- 3----------------------|---- 4------ 4-------------- 4--|
D|---- 2------ 2------ 2----------|------------------------ 3------|
A| 3---------------------- 1------|---------------- 5--------------|
E|---------------- 3------------ 3|--------------------------------|
http://classicalguitartablature.blogspot.com/
E|---- 1---------- 1--------------|---- 3------ 3------------------|
B|---- 1------ 4------ 4----------|---- 3------ 3-- 6-- 4------ 1--|
G|---- 2------ 2-- 2-- 2----------|---- 4------ 4-- 4-- 4------ 3--|
D|------------ 1-------------- 1--|---------------- 3--------------|
A|---------------- 3--------------|---------------- 5--------------|
E| 1------------------------------| 3------------------------------|
http://classicalguitartablature.blogspot.com/
E|---------------------- 3--------|--------------------------------|
B|-------- 1------ 5--------------| 8------ 8---------- 8------ 5--|
G|---------------- 3--------------| 7------ 7---------- 7------ 5--|
D|---- 2---------- 5--------------| 5---------- 5------ 5------ 5--|
A| 3------------------------------| 7------------------------------|
E|---------------- 3--------------|---------------- 7------------ 5|
http://classicalguitartablature.blogspot.com/
E|--------------------------------|--------------------------------|
B|-------- 5-------------------- 4|------ 3-- 1-- 3---- 1------ 1--|
G|-------- 5-------------------- 3|------ 3-- 3-- 3---- 3------ 3--|
D|-------- 5-- 5------ 5------ 5--| 2-------- 2-------- 2----------|
A|---------------- 7--------------| 3------------------------------|
E|--------------------------------|-------------- 3----------------|
http://classicalguitartablature.blogspot.com/
E|---------------------- 3--------|--------------------------------|
B|-------- 1------ 5--------------| 8------ 8---------- 8------ 5--|
G|---------------- 3--------------| 7------ 7---------- 7------ 5--|
D|---- 2---------- 5--------------| 5---------- 5------ 5------ 5--|
A| 3------------------------------| 7------------------------------|
E|---------------- 3--------------|---------------- 7------------ 5|
http://classicalguitartablature.blogspot.com/
E|--------------------------------|-------------------------- 3----|
B|-------- 5-------------------- 3|---- 3------ 6------------ 6----|
G|-------- 5-------------------- 5|---- 5---- 5---------- 5-- 4----|
D|-------- 5-- 5------ 5------ 5 3|---- 3------ 3------ 3----------|
A|---------------- 7--------------| 5------------------------------|
E|--------------------------------|-------------- 5-------------- 3|
http://classicalguitartablature.blogspot.com/
E|---------------------------- 3--|------ 3------------------------|
B|---------------------------- 5--|-------------- 6---- 4------ 3--|
G|------------ 4------ 4------ 3--|---- 3---------------------- 0--|
D|-- 3---------------- 3----------|---------------------------- 2--|
A|---------------- 5--------------| 3------------------------------|
E|--------------------------------|-------------- 3------ 6--------|
http://classicalguitartablature.blogspot.com/
E|--------------------------------|--------------------------------|
B|---- 1------ 1-------------- 1--| 1------------------ 1------ 1--|
G|--------------------------------|---- 0------ 3------------------|
D|------ 2------------ 2----------|-------- 2-- 2------------------|
A| 3-------------------- 1--------| 3---------------------- 1------|
E|-------------- 3----------------|---------------- 3--------------|
http://classicalguitartablature.blogspot.com/
E|------------------------------ 3|-------- 3---- 1----------------|
B|------------------------------ 1|-------------- 1-------- 4-- 3--|
G|-------- 3-------------------- 2|---------------------------- 2--|
D|---- 2------ 2------ 2----------|---- 1-------------- 1------ 1--|
A| 3---------------------- 1------|---------------- 3--------------|
E|---------------- 3------------ 1|--------------------------------|
http://classicalguitartablature.blogspot.com/
E|--------------------------------|--------------------------------|
B|---- 1------ 1------------------| 1------------------ 1------ 1--|
G|---- 2------ 2-------- 2--------|---- 0------ 3------------------|
D|------------ 1------ 1------ 1--|-------- 2-- 2------------------|
A|---------------- 3--------------| 3---------------------- 1------|
E| 1------------------------------|---------------- 3--------------|
http://classicalguitartablature.blogspot.com/
E|--------------------------------|---- 3------ 3-- 3-- 3----------|
B|--------------------------------|---- 3------ 3-- 3-- 3----------|
G|-------- 3----------------------|---- 4------ 4-------------- 4--|
D|---- 2------ 2------ 2----------|------------------------ 3------|
A| 3---------------------- 1------|---------------- 5--------------|
E|---------------- 3------------ 3|--------------------------------|
http://classicalguitartablature.blogspot.com/
E|---- 1---------- 1--------------|---- 3------ 3------------------|
B|---- 1------ 4------ 4----------|---- 3------ 3-- 6-- 4------ 1--|
G|---- 2------ 2-- 2-- 2----------|---- 4------ 4-- 4-- 4------ 3--|
D|------------ 1-------------- 1--|---------------- 3--------------|
A|---------------- 3--------------|---------------- 5--------------|
E| 1------------------------------| 3------------------------------|
http://classicalguitartablature.blogspot.com/
E|---------------------- 3--------|--------------------------------|
B|-------- 1------ 5--------------| 8------ 8---------- 8------ 5--|
G|---------------- 3--------------| 7------ 7---------- 7------ 5--|
D|---- 2---------- 5--------------|------------ 5------ 5------ 5--|
A| 3------------------------------| 7------------------------------|
E|---------------- 3--------------|---------------- 7--------------|
http://classicalguitartablature.blogspot.com/
E|--------------------------------|--------------------------------|
B|---------------- 5-- 8------ 8--|-------- 8---------- 8------ 5--|
G|-------- 5------ 5---------- 7--|-------- 7---------- 7------ 5--|
D|---------------- 5---------- 5--|------------ 5------ 5------ 5--|
A|---------------- 7--------------| 7------------------------------|
E| 5------------------------------|---------------- 7--------------|
http://classicalguitartablature.blogspot.com/
E|--------------------------------|--------------------------------|
B|-------------- 5---- 8------ 8--|------ 8------------ 8------ 5--|
G|------ 5------ 5---- 5------ 5--|------ 5------------ 5------ 4--|
D|------ 5------ 5---- 5------ 7--|------ 7---- 7------ 7------ 3--|
A|---------------- 7--------------| 5------------------------------|
E| 5------------------------------|---------------- 5--------------|
http://classicalguitartablature.blogspot.com/
E|---------------------------- 0--|--------------------------------|
B|---------------------------- 1--|-------- 1----------------------|
G|------------ 4-------------- 3--|-------- 3-------------- 3------|
D|-------- 3---------- 3----------|------------ 2---------- 2------|
A|---------------- 5--------------| 3------------------------------|
E| 3------------------------------|---------------- 3--------------|
http://classicalguitartablature.blogspot.com/
E|--------------------------------|--------------------------------|
B| 1------------------------------|--------------------------------|
G| 3------------------------------|--------------------------------|
D| 2------------------------------|--------------------------------|
A| 3------------------------------|--------------------------------|
E|--------------------------------|--------------------------------|
http://classicalguitartablature.blogspot.com/
0 com

La Bamba (BASIC)

Popular Latin tune fingerstyle chord melody guitar BASIC arrangement played in the key of C. La Bamba - BASIC Arrangement played in the key of C.
http://classicalguitartablature.blogspot.com/
E|--------------------------------|--------------------------------|
B|--------------------------------|--------------------------------|
G|--------------------------------|-------------------- 2------ 0--|
D|--------------------------------|-------- 2-- 0-- 3--------------|
A|------------------------ 0-- 2--| 3------------------------------|
E|-------------------- 3----------|--------------------------------|
http://classicalguitartablature.blogspot.com/
E|--------------------------------|--------------------------------|
B|--------------------------------|--------------------------------|
G|--------------------------------|-------------------- 2------ 0--|
D|------------ 0-- 3-- 3-- 2-- 0--|-------- 2-- 0 3----------------|
A|-------- 2----------------------| 3------------------------------|
E|---- 3--------------------------|--------------------------------|
http://classicalguitartablature.blogspot.com/
http://classicalguitartablature.blogspot.com/
E|---- 1-- 1-- 1-- 1-- 1-- 1-- 0--|--------------------------------|
B|--------------------------------|---- 1---- 1-------------- 0----|
G|--------------------------------|---- 0------ 2------ 2---- 0----|
D|--------------------------------|------ 2---- 3------ 3---- 0----|
A|--------------------------------| 3------------------------------|
E|--------------------------------|---------------- 1------------ 3|
http://classicalguitartablature.blogspot.com/
E|-- 1-- 1-- 1-- 1-- 1-- 1---- 0--|--------------------------------|
B|-------------- 1-- 1-- 1--------|---- 1------ 1------ 1------ 3--|
G|-------------- 2-- 2-- 2--------|---- 0------ 2------ 2------ 0--|
D|---------------- 3--------------|---- 2------ 3------ 3------ 0--|
A|--------------------------------| 3------------------------------|
E|---------------- 1--------------|---------------- 1--------------|
http://classicalguitartablature.blogspot.com/
E|---------------- 1-- 0------ 0--|--------------------------------|
B|---- 0---- 3---- 1------ 3-- 1--|---- 1------ 1------ 1------ 0--|
G|---- 0------ 0-- 2---------- 0--|---- 0------ 2------ 2------ 0--|
D|---- 0------ 0------------------|---- 2------ 3------ 3------ 0--|
A|--------------------------------| 3------------------------------|
E| 3-------------- 1--------------|---------------- 1--------------|
http://classicalguitartablature.blogspot.com/
E|---- 1-- 1-- 1-- 1-- 1-- 1-- 3--|---- 0------ 0------ 0------ 1--|
B|---- 0-- 0-- 0-- 1-- 1-- 1-- 1--|---- 1------ 1------ 1------ 3--|
G|---- 0-- 0-- 0-- 2-- 2-- 2-- 0--|------------ 2------ 2------ 0--|
D|---------------- 3--------------|--------------------------------|
A|--------------------------------| 3------------------------------|
E| 3-------------- 1--------------|---------------- 1--------------|
http://classicalguitartablature.blogspot.com/
E|-------------------- 1------ 0--|---- 0--------------------------|
B|---- 3------ 3------ 3------ 1--|---- 1------ 1-------------- 0--|
G|---- 0------ 2------ 2------ 0--|---- 0------ 2------ 2------ 0--|
D|---- 0------ 3------------------|------------ 3---------- 3-- 0--|
A|--------------------------------| 3------------------------------|
E| 3-------------- 1--------------|---------------- 1---------- 3--|
http://classicalguitartablature.blogspot.com/
E|---- 1-- 1-- 1-- 1-- 1-- 1-- 0--|--------------------------------|
B|--------------------------------|---- 1---- 1-------------- 0----|
G|--------------------------------|---- 0------ 2------ 2---- 0----|
D|--------------------------------|------ 2---- 3------ 3---- 0----|
A|--------------------------------| 3------------------------------|
E|--------------------------------|---------------- 1------------ 3|
http://classicalguitartablature.blogspot.com/
E|-- 1-- 1-- 1-- 1-- 1-- 1---- 0--|--------------------------------|
B|-------------- 1-- 1-- 1--------|---- 1------ 1------ 1------ 3--|
G|-------------- 2-- 2-- 2--------|---- 0------ 2------ 2------ 0--|
D|---------------- 3--------------|---- 2------ 3------ 3------ 0--|
A|--------------------------------| 3------------------------------|
E|---------------- 1--------------|---------------- 1--------------|
http://classicalguitartablature.blogspot.com/
E|---------------- 1-- 0------ 0--|--------------------------------|
B|---- 0---- 3---- 1------ 3-- 1--|---- 1------ 1------ 1------ 0--|
G|---- 0------ 0-- 2---------- 0--|---- 0------ 2------ 2------ 0--|
D|---- 0------ 0------------------|---- 2------ 3------ 3------ 0--|
A|--------------------------------| 3------------------------------|
E| 3-------------- 1--------------|---------------- 1--------------|
http://classicalguitartablature.blogspot.com/
E|---- 1-- 1-- 1-- 1-- 1-- 1-- 3--|---- 0------ 0------ 0------ 1--|
B|---- 0-- 0-- 0-- 1-- 1-- 1-- 1--|---- 1------ 1------ 1------ 3--|
G|---- 0-- 0-- 0-- 2-- 2-- 2-- 0--|------------ 2------ 2------ 0--|
D|---------------- 3--------------|--------------------------------|
A|--------------------------------| 3------------------------------|
E| 3-------------- 1--------------|---------------- 1--------------|
http://classicalguitartablature.blogspot.com/
E|-------------------- 1------ 0--|---- 0--------------------------|
B|---- 3------ 3------ 3------ 1--|---- 1------ 1-------------- 0--|
G|---- 0------ 2------ 2------ 0--|---- 0------ 2------ 2------ 0--|
D|---- 0------ 3------------------|------------ 3---------- 3------|
A|--------------------------------| 3------------------------------|
E| 3-------------- 1--------------|---------------- 1--------------|
http://classicalguitartablature.blogspot.com/
E|--------------------------------|--------------------------------|
B|------------ 0 1------------ 1--| 1------------ 1------------ 0--|
G|-------- 0---- 2-------- 2------| 0---------- 0-- 2------ 2------|
D|---- 0-------- 3---- 3----------|-------- 2---------- 3----------|
A|--------------------------------| 3------------------------------|
E| 3-------------- 1--------------|---------------- 1--------------|
http://classicalguitartablature.blogspot.com/
E|------------------------------ 0|--------------------------------|
B|------------------------------ 1|---------------- 1---------- 3--|
G|---- 0--------------------------| 0-------- 0---- 2------ 2-- 0--|
D|---------- 0-- 3-- 3---- 2 0----|------ 2------ 3---- 3------ 0--|
A|------ 2------------------------| 3------------------------------|
E| 3-------------- 1--------------|---------------- 1--------------|
http://classicalguitartablature.blogspot.com/
E|--------------------------------| 0------------------------------|
B|--------------------------------| 1------------ 1------------ 3--|
G|---- 0--------------------------| 0---------- 0 2------ 2---- 0--|
D|------------ 0-- 3-- 3-- 2 0----|-------- 2---------- 3------ 0--|
A|------ 2------------------------| 3------------------------------|
E| 3-------------- 1--------------|---------------- 1--------------|
http://classicalguitartablature.blogspot.com/
E|--------------------------------|--------------------------------|
B|-------------------------- 0-- 1|-------- 1-- 1------------------|
G|---- 0---------------- 2-- 0-- 0|-------- 0-- 0-- 2--------------|
D|---- 0------ 0-- 3 3-- 2-- 0-- 2|-------- 2-- 2-- 3--------------|
A|-------- 2----------------------| 3---------------------- 0-- 2--|
E| 3-------------- 1--------------|---------------- 1-- 3----------|
http://classicalguitartablature.blogspot.com/
E|--------------------------------|--------------------------------|
B|--------------------------------|--------------------------------|
G|-------------------- 2------ 0--|--------------------------------|
D|-------- 2-- 0-- 3--------------|------------ 0-- 3-- 3-- 2-- 0--|
A| 3------------------------------|-------- 2----------------------|
E|--------------------------------|---- 3--------------------------|
http://classicalguitartablature.blogspot.com/
E|--------------------------------|--------------------------------|
B|--------------------------------|--------------------------------|
G|-------------------- 2------ 0--|--------------------------------|
D|-------- 2-- 0 3----------------|------------ 0-- 3-- 3-- 2 0-- 2|
A| 3------------------------------|-------- 2----------------------|
E|--------------------------------|---- 3--------------------------|
http://classicalguitartablature.blogspot.com/
E|--------------------------------|--------------------------------|
B|--------------------------------|---------- 0-- 1----------------|
G|---------- 0-- 2-- 2-------- 0--|-- 0-- 2------ 0----------------|
D|-------- 2---- 3----------------|-------------- 2----------------|
A| 3------------------------------|-------------- 3----------------|
E|---------------------------- 3--|-- 3----------------------------|
http://classicalguitartablature.blogspot.com/