To celebrate the anniversary, I am giving you (finally...) : iPhone LickByNeck !!!!!!
0 com

Summer Wind (Intermediate)

Frank Sinatra's tune fingerstyle chord melody guitar intermediate arrangement played in the key of C.
Summer Wind - Frank Sinatra - INTERMEDIATE ARRANGEMENT played in the key of C
http://classicalguitartablature.blogspot.com/
E|--------------------------------|--------------------------------|
B| 3-- 3------------ 1 0---- 0 1 3|-------------- 0----------------|
G| 2---------- 2---- 2-- 2--------| 2------ 2------ 2------ 0------|
D| 1------ 1-------- 1------------|---- 1------ 1------ 1------ 1--|
A|---------------- 3--------------|---------------- 3--------------|
E| 1------------------------------| 1------------------------------|
http://classicalguitartablature.blogspot.com/
E|--------------------------------|--------------------------------|
B| 3-- 3------------ 1 0---- 0 1 3|-------------- 0----------------|
G| 2---------- 2---- 2-- 2--------| 2------ 2------ 2------ 0------|
D| 1------ 1-------- 1------------|---- 1------ 1------ 1------ 1--|
A|---------------- 3--------------|---------------- 3--------------|
E| 1------------------------------| 1------------------------------|
http://classicalguitartablature.blogspot.com/
http://classicalguitartablature.blogspot.com/
E|--------------------------------|------------ 5------------------|
B| 3-- 3-------- 1-- 1 0---- 0 1 3|---- 3---------- 3--------------|
G| 0---------- 0-------- 2------ 4|---- 4---------- 4------ 4------|
D| 2---- 2---------------------- 5|---- 5-- 5---------- 5------ 5--|
A| 3------------------------------| 3------------------------------|
E|-------------- 3----------------|---------------- 3--------------|
http://classicalguitartablature.blogspot.com/
E|--------------------------------|------------ 5------------------|
B| 3-- 3-------- 1-- 1 0---- 0 1 3|---- 3---------- 3--------------|
G| 0---------- 0-------- 2------ 4|---- 4---------- 4------ 4------|
D| 2---- 2---------------------- 5|---- 5-- 5---------- 5------ 5--|
A| 3------------------------------| 3------------------------------|
E|-------------- 3----------------|---------------- 3--------------|
http://classicalguitartablature.blogspot.com/
E|--------------------------------|--------------------------------|
B| 5 5 5--------------------------| 5 5 5---------------- 5------ 5|
G| 4 4 4-------- 4------------ 0--| 3 3-- 3------------ 0 6------ 5|
D| 5 5 5-------- 5---- 5------ 3--| 5 5-- 2---- 2------ 2 5---- 5--|
A| 3------ 2------ 0--------------|---------------------- 6------ 5|
E|------------------------ 4------| 3------ 2------ 0--------------|
http://classicalguitartablature.blogspot.com/
E|--------------------------------|--------------------------------|
B|------ 6---- 3------------------|--------------------------------|
G|------ 3---- 2------------------| 2------------------ 5------ 0--|
D|---- 3-- 5-- 3------ 3------ 3--|---- 3------ 3------ 3------ 3--|
A|-------- 4------ 3------ 2------| 1------ 0----------------------|
E|--------------------------------|---------------- 4------ 3------|
http://classicalguitartablature.blogspot.com/
E| 1 1 1--------------------------|--------------------------------|
B| 3 3 3--------------------------| 6 6 6--------------------------|
G| 2 2 2-------------- 5------ 0--| 7 7 7-------------- 5------ 0--|
D|------------ 3------ 3------ 3--| 6 6 6------ 6------ 3------ 3--|
A|-------------- 5-------- 3------|--------------------------------|
E| 1------ 0----------------------| 7------ 6------ 5------ 4------|
http://classicalguitartablature.blogspot.com/
E| 3------ 1----------------------|--------------------------------|
B| 1---- 0---- 5------------------|--------------------------------|
G| 0------ 0-- 5------------------|---- 4---------------------- 5--|
D|---- 2------ 5------ 5------ 5--|------ 5---- 5------ 5------ 3--|
A|---------------------- 5--------| 3------ 2------ 0--------------|
E| 3------ 1------ 0--------------|------------------------ 4------|
http://classicalguitartablature.blogspot.com/
E| 3 3 3--------------------------| 3 3 3---------------- 5------ 3|
B| 3 3 3---------------------- 1--| 3---------- 5------ 1 5---- 5 6|
G| 3 3 3-------------- 3------ 3--| 3---------- 3------ 3 5---- 5 5|
D|------------ 2------ 3------ 2--|------------ 5------ 2------ 5--|
A|--------------------------------| 5------ 4---- 3----------------|
E| 3------ 2------ 1---- 0--------|------------------------ 6---- 5|
http://classicalguitartablature.blogspot.com/
E|-------------------- 1----------|--------------------------------|
B|-------- 6---------- 2-- 5-- 3--|--------------------------------|
G|-------- 5---------- 3-- 3-- 1--|------------ 1------ 4------ 4--|
D|---- 3------ 3---------- 2-- 3--|---- 3------ 3---- 6------ 6----|
A|--------------------------------|---------------- 5---- 4------ 3|
E|-------- 4------ 3------ 2------| 1------ 0----------------------|
http://classicalguitartablature.blogspot.com/
E|------------ 3------------------|-------------- 0---- 3---- 0----|
B|------------ 3-- 8-- 6----------|-------------- 1---- 3---- 1----|
G|---- 2------ 2-- 7-- 6----------| 5------------ 2---- 1---- 0----|
D|---- 2---------- 6-- 5------ 5--|---- 4------ 3---------------- 5|
A|-------- 2----------------------|--------------------------------|
E|---------------- 6------ 5------| 4------ 3---- 2---- 1---- 0----|
http://classicalguitartablature.blogspot.com/
E|--------------------------------|--------------------------------|
B| 3-- 1--------------------------|--------------------------------|
G| 5 5 1---------------------- 0 7|------------ 7------ 5------ 5--|
D|---- 3------ 3------ 3------ 2--|---- 7---- 6------ 5------ 3----|
A| 6------ 5------ 4------ 3------|--------------------------------|
E|--------------------------------| 7------ 6------ 5------ 4------|
http://classicalguitartablature.blogspot.com/
E|------------ 3-- 3-- 1----------|--------------------------------|
B|------------ 3-- 3-- 3----------|-------------- 5---- 8---- 5-- 3|
G|---- 0------ 2-- 1-- 1----------|---- 5------ 3 7---- 7---- 7-- 5|
D|---- 2---------------------- 0--|---- 3---- 5---- 7-- 6---- 5-- 3|
A|--------------------------------| 5------ 4----------------------|
E| 3------ 2------ 1------ 0------|---------------- 9-- 7---- 6----|
http://classicalguitartablature.blogspot.com/
E|--------------------------------|--------------------------------|
B|------------ 1------------------|--------------------------------|
G|---- 5------ 2------------------|--------------------------------|
D|---- 3------ 2------------------|--------------------------------|
A|--------------------------------|--------------------------------|
E| 5-- 4------ 3------------------|--------------------------------|
http://classicalguitartablature.blogspot.com/
0 com

Don't Explain (BASIC)

Billie Holiday's tune fingerstyle chord melody guitar BASIC arrangement played in the key of Em.
Don't Explain - BASIC ARRANGEMENT played in the key of Em
http://classicalguitartablature.blogspot.com/
E|10------ 8----------------------| 8------ 7------------ 7--------|
B| 8------ 8----------------------| 6-------------------- 5---- 5--|
G| 8-- 8------ 8------ 7------ 7--| 6-- 6------ 6------ 5------ 5--|
D|-- 7------ 7------ 6------ 6----|-- 5------ 5------ 4------ 4----|
A| 8------------ 7----------------| 6------------ 5----------------|
E|------------------------ 6------|--------------------------------|
http://classicalguitartablature.blogspot.com/
E| 3------------------------------|--------------------------------|
B| 3-------- 3---------- 5--------|------------------------------ 5|
G| 2------ 2---------- 4---- 4-- 3|---- 3---- 3---- 2-- 2---- 2-- 7|
D|---- 2------ 2---- 5-------- 5 2|---- 2---- 2---- 1-- 1---- 1----|
A|---------------- 4--------------|-------- 3-- 3-- 2--------------|
E| 3------------------------------| 2---------------------- 1-- 1 0|
http://classicalguitartablature.blogspot.com/
http://classicalguitartablature.blogspot.com/
E|------------------------ 7------| 2------------------------------|
B|------ 8---------------- 5-- 5--| 5------------------------------|
G|-------- 7------------------ 7--| 2------ 2---------- 2------ 2--|
D|---- 5------ 5------ 5----------|---- 4------ 4---- 4------ 1----|
A|---------------- 5--------------| 3-------------- 2--------------|
E|--------------------------------|------------------------ 1------|
http://classicalguitartablature.blogspot.com/
E|------------------------------ 2|------------------------------10|
B| 5------ 8------------ 7---- 8 2|---------------------- 0------ 8|
G| 7-------------------- 7------ 3|---- 3------ 3------ 2---- 2----|
D|---- 5------ 5------ 5---- 5----|-- 4------ 2------ 1-------- 1--|
A|---------------- 5------------ 4|-------- 3------ 2--------------|
E| 0------------------------------|--------------------------------|
http://classicalguitartablature.blogspot.com/
E|------ 8------------------------| 8------ 7------------ 7--------|
B|-------- 8----------------------| 6-------------------- 5---- 5--|
G| 8-- 8------ 8------ 7------ 7--| 6-- 6------ 6------ 5------ 5--|
D|-- 7------ 7------ 6------ 6----|-- 5------ 5------ 4------ 4----|
A| 8------------ 7----------------| 6------------ 5----------------|
E|---------------------- 6--------|--------------------------------|
http://classicalguitartablature.blogspot.com/
E| 2------------------------------|--------------------------------|
B| 3------------------ 0------ 0--|---- 8------ 4---------------- 5|
G| 4---- 4------------ 0------ 2--|---- 5------ 5------ 3------ 2 7|
D|---- 4------ 4---- 2------ 0----|-- 7------ 4------ 2------ 1----|
A|---------------- 3------ 2---- 6|------ 5------ 3------ 2--------|
E| 3------------------------------|------------------------------ 0|
http://classicalguitartablature.blogspot.com/
E|------------------------ 7------| 2------------------------------|
B|------ 8---------------- 5-- 5--| 5------------------------------|
G|-------- 7------------------ 7--| 2------ 2---------- 2------ 2--|
D|---- 5------ 5------ 5----------|---- 4------ 4---- 4------ 1----|
A|---------------- 5--------------| 3-------------- 2--------------|
E|--------------------------------|------------------------ 1------|
http://classicalguitartablature.blogspot.com/
E|------------------------------ 2|------------------------------10|
B| 5------ 8------------ 7---- 8 2|---------------------- 0------ 8|
G| 7-------------------- 7------ 3|---- 3------ 3------ 2---- 2----|
D|---- 5------ 5------ 5---- 5----|-- 4------ 2------ 1-------- 1--|
A|---------------- 5------------ 4|-------- 3------ 2--------------|
E| 0------------------------------|--------------------------------|
http://classicalguitartablature.blogspot.com/
E|------ 8------------------------| 8------ 7------------ 7--------|
B|-------- 8----------------------| 6-------------------- 5---- 5--|
G| 8-- 8------ 8------ 7------ 7--| 6-- 6------ 6------ 5------ 5--|
D|-- 7------ 7------ 6------ 6----|-- 5------ 5------ 4------ 4----|
A| 8------------ 7----------------| 6------------ 5----------------|
E|---------------------- 6--------|--------------------------------|
http://classicalguitartablature.blogspot.com/
E| 3------------------------------|------------------------------ 7|
B| 3-------- 3---------- 5--------|------------------------------ 8|
G| 2------ 2---------- 4---- 4-- 3|---- 3---- 3---- 2-- 2---- 2-- 7|
D|---- 2------ 2---- 5-------- 5 2|---- 2---- 2---- 1-- 1---- 1----|
A|---------------- 4--------------|-------- 3-- 3-- 2--------------|
E| 3------------------------------| 2---------------------- 1-- 1--|
http://classicalguitartablature.blogspot.com/
E|---- 7--10-- 7-- 8-- 8-------- 5|---- 5-- 8-- 5------------------|
B|---- 8-- 8-- 8-- 5-- 5------ 5 5|---- 5-- 5-- 5--12--------------|
G|---------------- 5-------- 5-- 5|----------------11--11------10--|
D|-- 9------ 9---------- 5--------|-- 5------ 5------12------ 9----|
A|---------------- 0------------ 5|----------------10--------------|
E| 0------------------------------|------------------------ 9------|
http://classicalguitartablature.blogspot.com/
E|-------- 7----------------------|------------------------------ 7|
B| 8-- 8-- 8-- 8--10--10-------- 7|---- 8--10--10--10-- 8-- 7---- 8|
G| 9-- 9------ 9-- 9-- 9------ 9 9|---- 9-- 9-- 9-- 8-- 8-- 8-- 8 7|
D|-- 9------ 9----10--------10----|-- 8------ 8------ 7------ 7----|
A|---------------- 9------ 9------|--------------------------------|
E| 8---------------------------- 8|---------------- 7--------------|
http://classicalguitartablature.blogspot.com/
E|---- 7--10-- 7-- 8-- 8-------- 5|---- 5-- 8-- 5------------------|
B|---- 8-- 8-- 8-- 5-- 5------ 5 5|---- 5-- 5-- 5--12--------------|
G|---------------- 5-------- 5-- 5|----------------11--11------10--|
D|-- 9------ 9------------ 5------|-- 5------ 5------12------ 9----|
A|---------------- 0------------ 5|----------------10--------------|
E| 0------------------------------|------------------------ 9------|
http://classicalguitartablature.blogspot.com/
E|-------- 7----------------------|-------------- 2----------------|
B| 8-- 8-- 8-- 8--10--10-------- 7|---- 8--10-- 8 4----------------|
G| 9-- 9------ 9-- 9-- 9------ 9--| 9-- 9-- 9-- 9------ 2------ 2--|
D|-- 9------ 9----10--------10----|-- 8------ 8------ 4------ 1----|
A|---------------- 9------ 9------|---------------- 2--------------|
E| 8------------------------------| 8---------------------- 1------|
http://classicalguitartablature.blogspot.com/
E|------------------------ 7------| 2------------------------------|
B| 5------ 8-------------- 5-- 5--| 5------------------------------|
G| 7------ 7------------------ 7--| 2------ 2---------- 2------ 2--|
D|---- 5------ 5------ 5----------|---- 4------ 4---- 4------ 1----|
A|---------------- 5--------------| 3-------------- 2--------------|
E| 0------------------------------|------------------------ 1------|
http://classicalguitartablature.blogspot.com/
E|------------------------------ 2|------------------------------10|
B| 5------ 8------------ 7---- 8 2|---------------------- 0------ 8|
G| 7-------------------- 7------ 3|---- 3------ 3------ 2---- 2----|
D|---- 5------ 5------ 5---- 5----|-- 4------ 2------ 1-------- 1--|
A|---------------- 5------------ 4|-------- 3------ 2--------------|
E| 0------------------------------|--------------------------------|
http://classicalguitartablature.blogspot.com/
E|------ 8------------------------| 8------ 7------------ 7--------|
B|-------- 8----------------------| 6-------------------- 5---- 5--|
G| 8-- 8------ 8------ 7------ 7--| 6-- 6------ 6------ 5------ 5--|
D|-- 7------ 7------ 6------ 6----|-- 5------ 5------ 4------ 4----|
A| 8------------ 7----------------| 6------------ 5----------------|
E|---------------------- 6--------|--------------------------------|
http://classicalguitartablature.blogspot.com/
E| 3------------------------------|--------------------------------|
B| 3-------- 3---------- 5--------|--------------------------------|
G| 2------ 2---------- 4---- 4-- 3|---- 3---- 3---- 2-- 2---- 2----|
D|---- 2------ 2---- 5-------- 5 2|---- 2---- 2---- 1-- 1---- 1----|
A|---------------- 4--------------|-------- 3-- 3-- 2--------------|
E| 3------------------------------| 2---------------------- 1-- 1--|
http://classicalguitartablature.blogspot.com/
E|--------------------------------|--------------------------------|
B|-- 2----------------------------|--------------------------------|
G| 0------------------------------|--------------------------------|
D| 2------------------------------|--------------------------------|
A|--------------------------------|--------------------------------|
E| 0------------------------------|--------------------------------|
http://classicalguitartablature.blogspot.com/
0 com

Black Coffee (Intermediate)

Bluesy jazz tune fingerstyle chord melody guitar intermediate arrangement played in the key of F.
Black Coffee - INTERMEDIATE ARRANGEMENT played in the key of F
http://classicalguitartablature.blogspot.com/
E| 3-- 5------ 8-- 5--------------|------------ 4 3----------------|
B| 3------11------ 6-- 6----------|-------- 3------ 4------ 6-- 6--|
G| 3------ 8------ 7-- 7------ 7--|---- 5-- 3------ 4-- 4-- 7-- 7--|
D|-- 3------10-------- 6---- 6----|-- 8------ 3------ 3---- 8-- 7--|
A|-------- 9------ 8------ 7---- 6|-------- 5------ 4--------------|
E| 3------------------------------|------------------------ 8------|
http://classicalguitartablature.blogspot.com/
E|--------------------------------|--------------------------------|
B|---------------- 6-- 6------ 6--|---------------------------- 1--|
G|---- 7 6---- 6-- 5-- 5------ 5--| 3-- 3------ 3------ 0-- 1-- 1--|
D|-- 7------ 5---- 5 5------ 4----| 3-- 3---- 1------ 0------ 0----|
A|--------------------------------|--------------------------------|
E| 7------ 6------ 5---- 4--------| 3------ 2---- 1-------- 0------|
http://classicalguitartablature.blogspot.com/
http://classicalguitartablature.blogspot.com/
E| 1-- 1--------------------------| 1-- 1------------------------ 1|
B| 4-- 4-- 6------ 4-- 1----------| 2---- 6------ 4------------ 1 4|
G| 2-- 2-- 5-- 5-- 3-- 3------ 3--| 2---- 5---- 5 4---- 4---- 3----|
D|---------- 7---- 2-- 2---- 2----|-- 1---- 4-------- 2------ 2----|
A|-------- 6------ 4------ 3------| 2------------------------------|
E| 1------------------------------|------ 5-------- 4---- 2--------|
http://classicalguitartablature.blogspot.com/
E|---- 1-- 1----------------------|------------------------------ 4|
B|-------- 1-- 1-- 4-- 4 4------ 6|---- 6-- 6-- 1 4------ 6------ 3|
G| 2------ 3------ 3-- 3 4---- 5 5|---- 6-- 7-- 3 2---- 2------ 5 1|
D|-- 1------ 1------ 2------ 2----|-- 3 5-- 7-- 2---- 4------ 4----|
A|--------------------------------|------------ 3 2-------------- 1|
E| 1------ 3------ 2---- 4--------| 5-- 6-- 7------------ 5--------|
http://classicalguitartablature.blogspot.com/
E|--------------------------------|---- 8---------- 4--------------|
B|---- 3--------------------------|---- 9----11---- 6-- 6---- 3----|
G|---- 3------ 3------ 3------ 5--| 7-- 8----10---- 3-- 6---- 1----|
D|---- 3---- 3------ 1------ 4----| 6-------- 8-------- 5---- 0----|
A|--------------------------------|---------------- 5-- 6----------|
E|-------- 4------ 3------ 5------| 6-- 8---- 9-------------- 0----|
http://classicalguitartablature.blogspot.com/
E|--------------------------------|------------------------------ 3|
B|--------------------------------|--------------------------------|
G| 5-- 5------ 5------ 3------ 3--|---- 0------ 0------ 5------ 5--|
D|-- 7------ 7------ 2------ 2----|-- 3------ 1------ 4------ 4----|
A| 8------ 6------ 4---- 3--------| 2------ 1----------------------|
E|--------------------------------|---------------- 5------ 4------|
http://classicalguitartablature.blogspot.com/
E|---- 5------ 8-- 5--------------|------------ 4 3----------------|
B| 3------11------ 6-- 6----------|-------- 3------ 4------ 6-- 6--|
G| 3------ 8------ 7-- 7------ 7--|---- 5-- 3------ 4-- 4-- 7-- 7--|
D|-- 3------10-------- 6---- 6----|-- 8------ 3------ 3---- 8-- 7--|
A|-------- 9------ 8------ 7---- 6|-------- 5------ 4--------------|
E| 3------------------------------|------------------------ 8------|
http://classicalguitartablature.blogspot.com/
E|--------------------------------|--------------------------------|
B|---------------- 6-- 6------ 6--|---------------------------- 1--|
G|---- 7 6---- 6-- 5-- 5------ 5--| 3-- 3------ 3------ 0-- 1-- 1--|
D|-- 7------ 5---- 5 5------ 4----| 3-- 3---- 1------ 0------ 0----|
A|--------------------------------|--------------------------------|
E| 7------ 6------ 5---- 4--------| 3------ 2---- 1-------- 0------|
http://classicalguitartablature.blogspot.com/
E| 1-- 1--------------------------| 1-- 1------------------------ 1|
B| 4-- 4-- 6------ 4-- 1----------| 2---- 6------ 4------------ 1 4|
G| 2-- 2-- 5-- 5-- 3-- 3------ 3--| 2---- 5---- 5 4---- 4---- 3----|
D|---------- 7---- 2-- 2---- 2----|-- 1---- 4-------- 2------ 2----|
A|-------- 6------ 4------ 3------| 2------------------------------|
E| 1------------------------------|------ 5-------- 4---- 2--------|
http://classicalguitartablature.blogspot.com/
E|---- 1-- 1----------------------|------------------------------ 4|
B|-------- 1-- 1-- 4-- 4 4------ 6|---- 6-- 6-- 1 4------ 6------ 3|
G| 2------ 3------ 3-- 3 4---- 5 5|---- 6-- 7-- 3 2---- 2------ 5 1|
D|-- 1------ 1------ 2------ 2----|-- 3 5-- 7-- 2---- 4------ 4----|
A|--------------------------------|------------ 3 2-------------- 1|
E| 1------ 3------ 2---- 4--------| 5-- 6-- 7------------ 5--------|
http://classicalguitartablature.blogspot.com/
E|--------------------------------|---- 8---------- 4--------------|
B|---- 3--------------------------|---- 9----11---- 6-- 6---- 3----|
G|---- 3------ 3------ 3------ 5--| 7-- 8----10---- 3-- 6---- 1----|
D|---- 3---- 3------ 1------ 4----| 6-------- 8-------- 5---- 0----|
A|--------------------------------|---------------- 5-- 6----------|
E|-------- 4------ 3------ 5------| 6-- 8---- 9-------------- 0----|
http://classicalguitartablature.blogspot.com/
E|--------------------------------|------------------------------ 3|
B|--------------------------------|--------------------------------|
G| 5-- 5------ 5------ 3------ 3--|---- 0------ 0------ 5------ 5--|
D|-- 7------ 7------ 2------ 2----|-- 3------ 1------ 4------ 4----|
A| 8------ 6------ 4---- 3--------| 2------ 1----------------------|
E|--------------------------------|---------------- 5------ 4------|
http://classicalguitartablature.blogspot.com/
E|---- 5------ 8-- 5--------------|------------ 4 3----------------|
B| 3------11------ 6-- 6----------|-------- 3------ 4------ 6-- 6--|
G| 3------ 8------ 7-- 7------ 7--|---- 5-- 3------ 4-- 4-- 7-- 7--|
D|-- 3------10-------- 6---- 6----|-- 8------ 3------ 3---- 8-- 7--|
A|-------- 9------ 8------ 7---- 6|-------- 5------ 4--------------|
E| 3------------------------------|------------------------ 8------|
http://classicalguitartablature.blogspot.com/
E|--------------------------------|------------------------------ 6|
B|---------------- 6-- 6------ 6--|------------------------------ 6|
G|---- 7 6---- 6-- 5-- 5------ 5--| 3-- 3---- 4---- 5-- 5------ 8 6|
D|-- 7------ 5---- 5 5------ 4----| 3-- 3---- 3---- 5-- 5---- 7----|
A|--------------------------------|--------------------------------|
E| 7------ 6------ 5---- 4--------| 3------ 4-- 4-- 5------ 7------|
http://classicalguitartablature.blogspot.com/
E|---- 8------------------ 8------| 4------------------------------|
B|--------11-- 9--11------ 5------| 1-- 6---------------------- 6--|
G|------------ 8------ 9-- 6-- 6--| 1---------- 3------ 5---- 5----|
D|-- 6----1010------11------ 5----|---- 5---- 5------ 3-- 4-- 4----|
A|------------------------ 6------|--------------------------------|
E| 6------ 8---- 9----------------| 1------ 3------ 4------ 5------|
http://classicalguitartablature.blogspot.com/
E| 6-- 8-- 6-- 8-- 9------11------| 8-------------------------- 8--|
B| 6------ 6------11------ 9------| 8------------------------------|
G| 6------ 5------ 9-- 9-- 9-- 9--| 7-- 7------ 7------10----------|
D|-- 5------ 4------11------ 9----|-- 7------ 7------10------10----|
A|----------------10------ 9------| 8---- 7------------------------|
E| 6------ 4----------------------|----------------10------ 8------|
http://classicalguitartablature.blogspot.com/
E| 9-- 9 9---- 9 9------------12--| 9-- 9---------------------- 6--|
B| 9---- 8---- 8 7----------1010--| 9-- 9-------------- 7------ 7--|
G|-- 8------ 6---- 6-- 6----10----| 8-- 8------ 8------ 6----------|
D|------------------ 5------10----|---------- 8------ 8------ 8----|
A|------------------------10------| 9------ 8---- 6----------------|
E| 7---- 6-------- 5--------------|---------------------- 9--------|
http://classicalguitartablature.blogspot.com/
E| 9-- 9-- 9-- 9-------------- 9--| 8 8 8-- 8-- 8------------------|
B| 9-- 9-- 8-- 8-- 2-------- 9----|111111--10--10-- 1---------- 1--|
G| 8 8---- 6 6---- 4-- 4----10----|101010-- 8 8-------- 0------ 1--|
D|------------------ 5------ 9----|------------------ 0------ 0----|
A|------------------------11------|10------ 9----------------------|
E| 7------ 6------ 5--------------|---------------- 1------ 0------|
http://classicalguitartablature.blogspot.com/
E| 1-- 1--------------------------| 1-- 1------------------------ 1|
B| 4-- 4-- 6------ 4-- 1----------| 2---- 6------ 4------------ 1 4|
G| 2-- 2-- 5-- 5-- 3-- 3------ 3--| 2---- 5---- 5 4---- 4---- 3----|
D|---------- 7---- 2-- 2---- 2----|-- 1---- 4-------- 2------ 2----|
A|-------- 6------ 4------ 3------| 2------------------------------|
E| 1------------------------------|------ 5-------- 4---- 2--------|
http://classicalguitartablature.blogspot.com/
E|---- 1-- 1----------------------|------------------------------ 4|
B|-------- 1-- 1-- 4-- 4 4------ 6|---- 6-- 6-- 1 4------ 6------ 3|
G| 2------ 3------ 3-- 3 4---- 5 5|---- 6-- 7-- 3 2---- 2------ 5 1|
D|-- 1------ 1------ 2------ 2----|-- 3 5-- 7-- 2---- 4------ 4----|
A|--------------------------------|------------ 3 2-------------- 1|
E| 1------ 3------ 2---- 4--------| 5-- 6-- 7------------ 5--------|
http://classicalguitartablature.blogspot.com/
E|--------------------------------|---- 8---------- 4--------------|
B|---- 3--------------------------|---- 9----11---- 6-- 6---- 3----|
G|---- 3------ 3------ 3------ 5--| 7-- 8----10---- 3-- 6---- 1----|
D|---- 3---- 3------ 1------ 4----| 6-------- 8-------- 5---- 0----|
A|--------------------------------|---------------- 5-- 6----------|
E|-------- 4------ 3------ 5------| 6-- 8---- 9-------------- 0----|
http://classicalguitartablature.blogspot.com/
E|--------------------------------|---------- 5 811----11------10--|
B| 1------------------------------|---- 3 6------10----------11----|
G| 0-- 0 2---- 2------ 3------ 4--|---- 5 7------ 8----------11----|
D|-- 0---- 1 1------ 3------ 3----|-- 5--------------10------10----|
A|--------------------------------|--------------------------------|
E| 1------ 2---- 3-------- 4------| 5---- 6------ 8------10--------|
http://classicalguitartablature.blogspot.com/
E| 6-- 5-- 6-- 8------------------|-------- 1-- 4-- 3--------------|
B| 8------ 6------10-- 6----------|---- 3-- 3-- 3-- 6------ 6---- 6|
G|-- 7------ 7---- 8-- 3------ 3--|---- 3-- 3-- 4-- 3------ 7---- 7|
D|----------------10-- 3---- 3----|-- 1-------------- 3---- 8---- 7|
A| 7------ 8------ 9--------------|---------------- 5-- 4----------|
E|------------------------ 3------| 2------ 1-- 0---------- 8---- 7|
http://classicalguitartablature.blogspot.com/
E|---------------------------- 1--|--------------------------------|
B|-------------- 6---- 6 6---- 3--|--------------------------------|
G|-------------- 6---- 5 3---- 2--|--------------------------------|
D|-------------- 5---- 5 3--------|--------------------------------|
A|--------------------------------|--------------------------------|
E|-------------- 6---- 5-- 3-- 1--|--------------------------------|
http://classicalguitartablature.blogspot.com/