To celebrate the anniversary, I am giving you (finally...) : iPhone LickByNeck !!!!!!
0 com

Somebody To Love (BASIC)

Queen/Glee Cast's tune fingerstyle chord melody guitar BASIC arrangement played in the key of G.

Somebody To Love-Glee-Queen-BASIC ARRANGEMENT played In the key of G.
http://classicalguitartablature.blogspot.com/
E| 3----------------------|------------------------|
B|------------------------|-------------- 0---- 3--|
G|------------------------|-- 0---- 2---- 0---- 0--|
D|------------------------|-- 0---- 0---- 0---- 2--|
A|------------------------|-------------------- 3--|
E|------------------------|-- 3---- 2-- 0----------|
http://classicalguitartablature.blogspot.com/
E|------------------------|------------ 7------ 5--|
B|------------------------|------------ 5----------|
G|------------------------|------------ 5----------|
D|------------------------|------------------------|
A|------------------------|------------ 5----------|
E|------------------------|------------------------|
http://classicalguitartablature.blogspot.com/
http://classicalguitartablature.blogspot.com/
E|------------------------|-------------- 3---- 3--|
B| 8 5--------------------|-------------------- 0--|
G|------ 7----------------|-------------- 0---- 0--|
D|------------------------|------------------------|
A|------------------------|-------------- 3---- 3--|
E|------------------------|------------------------|
http://classicalguitartablature.blogspot.com/
E|-- 2---- 7---- 5--------|------------------------|
B|-- 0---- 5---- 5--------|------------------------|
G|-- 0---- 5---- 5--------|---------------------- 0|
D|------ 5----------------|---------------------- 0|
A|-- 2---- 5---- 5--------|------------------------|
E|------------------------|---------------------- 3|
http://classicalguitartablature.blogspot.com/
E|------------------------|------------------------|
B|------------------------|------------------------|
G|------------------------|------------ 0-- 0-- 2--|
D|------------------------|------------------------|
A|------------------------|------------------------|
E|------------------------|------------------------|
http://classicalguitartablature.blogspot.com/
E|------------------------|------------------------|
B| 0-- 3---------- 3------|------ 3----------------|
G| 0-- 0------ 2----------| 0-------------- 0------|
D| 0-- 0-- 0-- 0------ 0--| 2 2-------- 2------ 2--|
A|------------------------|------------------------|
E| 3---------- 2----------| 0----------------------|
http://classicalguitartablature.blogspot.com/
E|------------------------|------------------------|
B|-------- 1--------------| 3------------------ 3--|
G|---- 0---------- 0------| 0------ 0------ 0------|
D| 2---------- 2------ 2--|---- 4------ 4----------|
A| 3----------------------| 5----------------------|
E|------------------------|------------------------|
http://classicalguitartablature.blogspot.com/
E|------------------------|------------------ 3----|
B| 3-- 3-- 3-- 3-- 3-- 1 0|---------------- 0------|
G| 0-- 0---------- 2------| 0-- 0------ 0----------|
D| 0-- 0-- 0-- 0-- 0------|------ 0----------------|
A|------------------------|------------------------|
E| 3---------- 2----------| 0----------------------|
http://classicalguitartablature.blogspot.com/
E| 3-- 3-- 3-- 5-- 5-- 5--|-- 0--------------------|
B| 0-- 0-- 0-- 2-- 2-- 2--| 3-- 3---------- 3-- 1--|
G| 0------ 0-- 2-- 2-- 2--| 0------ 0--------------|
D|------------------------|------------ 4----------|
A|------------ 0----------| 5----------------------|
E| 3----------------------|------------------------|
http://classicalguitartablature.blogspot.com/
E|------------------------|------------------------|
B| 0-- 3-------------- 1--|---- 0-- 0--------------|
G| 0-------------- 2------| 2 0-------- 2----------|
D| 0------ 0--------------|---------------- 2------|
A|------------------------|------------------------|
E| 3---------- 2----------| 0----------------------|
http://classicalguitartablature.blogspot.com/
E|------------------------|------------------------|
B|------------------ 0----|------------ 3------ 0--|
G|---- 2 2 2 2------------| 2------ 2--------------|
D|-------------- 2--------|---- 4---------- 4------|
A| 0----------------------| 5----------------------|
E|------------------------|------------------------|
http://classicalguitartablature.blogspot.com/
E|------------------------|------------------------|
B| 0-- 0-- 0-- 2-- 0-- 2--| 3-- 3-- 3-------- 3----|
G| 0-- 0-- 0-- 2-- 2-- 2--| 2-- 2-- 2------ 2------|
D| 0-- 0-- 0-- 2-- 2-- 2--| 4-- 4 4-- 4------------|
A|------------ 0----------| 5----------------------|
E| 3----------------------|------------------------|
http://classicalguitartablature.blogspot.com/
E|------------------------| 2---------- 3----------|
B| 3-- 3-- 3-- 5-- 5-- 5--| 3---------- 1-------- 0|
G| 2-- 2------ 2-- 2-- 2--| 2---------- 0------ 0 0|
D| 4-- 4-- 4-- 2-- 2-- 2--|---- 4---- 2---- 2------|
A| 5---------- 4----------| 5---------- 3----------|
E|------------------------|------------------------|
http://classicalguitartablature.blogspot.com/
E|------------------------|------------------------|
B|------------------------| 0---------------- 1----|
G|---- 2-- 0-- 0-- 0-- 0--| 0-- 2-- 0-- 0 0--------|
D| 0-- 0-- 0-- 0-- 0-- 0--| 0-- 0-- 0-- 0 0--------|
A|------------------------|------------------------|
E| 3---------- 3----------| 3---------- 3----------|
http://classicalguitartablature.blogspot.com/
E|------------------------|---------- 3------------|
B| 0------ 0-- 1------ 1--| 3------ 3-- 1----------|
G| 0------ 0-- 2------ 2--| 0------------------ 0--|
D|---- 0---------- 0---- 0|---- 0---- 2---- 2------|
A|------------------------|------------ 3----------|
E| 3---------- 2-------- 0|------------------------|
http://classicalguitartablature.blogspot.com/
E|------------------------|------------------------|
B| 5-- 5-- 0--------------|------------ 0----------|
G| 5-- 5------ 2-- 2-- 2--| 2------ 0------ 0------|
D| 5-- 5------------------|---- 0-------------- 0--|
A| 5-- 5------------------|------------------------|
E|------------------------| 3----------------------|
http://classicalguitartablature.blogspot.com/
E|------------------------|------------------------|
B|------------ 3----------|------------ 0----------|
G|-------- 2------ 2------|-------- 0------ 0------|
D|---- 0-------------- 0--|---- 2-------------- 2--|
A|------------------------|------------------------|
E| 2----------------------| 0----------------------|
http://classicalguitartablature.blogspot.com/
E|------------------------|------------------------|
B|------------ 1----------|------------ 3-- 0------|
G|-------- 0------ 0------|-------- 0---------- 2--|
D|---- 2-------------- 2--|---- 4------------------|
A| 3----------------------| 5----------------------|
E|------------------------|------------------------|
http://classicalguitartablature.blogspot.com/
E|---- 3-- 3-- 3----------|------------------------|
B| 0------ 0-- 0-- 0-- 0--|-------------------- 0--|
G| 0-- 0-- 0-- 0----------| 2-- 2-- 2-- 0----------|
D| 0----------------------|---- 0-- 0-- 2 2--------|
A|------------------------|------------------------|
E| 3----------------------| 2---------- 0----------|
http://classicalguitartablature.blogspot.com/
E|------------------------|------------------------|
B| 0-- 0-- 0-- 2-- 0-- 2--| 3---------- 3-- 0------|
G|---- 0-- 0-- 2-- 2-- 2--| 2------ 2---------- 2--|
D| 0-- 0-- 0-- 2-- 2-- 2--|---- 4------------------|
A|------------ 0----------| 5----------------------|
E| 3----------------------|------------------------|
http://classicalguitartablature.blogspot.com/
E|------------------------|------------------------|
B|---- 0-- 0-- 0----------|---- 0-- 0--------------|
G| 0---------- 2-- 2-- 0--| 0---------- 0------ 0--|
D| 0---------- 0-- 0-- 0--| 2-------------- 2------|
A|------------------------|------------------------|
E| 3---------- 2----------| 0----------------------|
http://classicalguitartablature.blogspot.com/
E|------------ 5-- 5 5----| 2 0--------------------|
B|------------ 2-- 2-- 2--| 3-- 3---------- 3-- 1--|
G| 2-- 2-- 2-- 2-- 2-- 2--| 2------ 2--------------|
D| 2-- 2-- 2--------------|------------ 4----------|
A| 0----------------------| 5----------------------|
E|------------------------|------------------------|
http://classicalguitartablature.blogspot.com/
E|------------------------|------------------------|
B| 0-- 0-- 0-- 2-- 0-- 2--| 3-- 3-- 3-------- 3----|
G| 0-- 0-- 0-- 2-- 2-- 2--| 2-- 2-- 2------ 2------|
D| 0-- 0-- 0-- 2-- 2-- 2--| 4-- 4 4-- 4------------|
A|------------ 0----------| 5----------------------|
E| 3----------------------|------------------------|
http://classicalguitartablature.blogspot.com/
E|------------------------| 2---------- 3----------|
B| 3-- 3-- 3-- 5-- 5-- 5--| 3---------- 1-------- 0|
G| 2-- 2------ 2-- 2-- 2--| 2---------- 0------ 0 0|
D| 4-- 4-- 4-- 2-- 2-- 2--|---- 4---- 2---- 2------|
A| 5---------- 4----------| 5---------- 3----------|
E|------------------------|------------------------|
http://classicalguitartablature.blogspot.com/
E|------------------------|------------------------|
B|------------------------| 0---------------- 1----|
G|---- 2-- 0-- 0-- 0-- 0--| 0-- 2-- 0-- 0 0--------|
D| 0-- 0-- 0-- 0-- 0-- 0--| 0-- 0-- 0-- 0 0--------|
A|------------------------|------------------------|
E| 3---------- 3----------| 3---------- 3----------|
http://classicalguitartablature.blogspot.com/
E|------------------------|---------- 3------------|
B| 0------ 0-- 1------ 1--| 3------ 3-- 1----------|
G| 0------ 0-- 2------ 2--| 0------------------ 0--|
D|---- 0---------- 0---- 0|---- 0---- 2---- 2------|
A|------------------------|------------ 3----------|
E| 3---------- 2-------- 0|------------------------|
http://classicalguitartablature.blogspot.com/
E|------------------------| 3----------------------|
B| 5-- 5-- 8-- 8-- 5-- 7--|------------ 0----------|
G| 5-- 5-- 5------ 5-- 5--| 0------ 0------ 0------|
D| 5-- 5 5-------- 5-- 5--|---- 0-------------- 0--|
A| 5-- 5------------------|------------------------|
E|------------------------| 3----------------------|
http://classicalguitartablature.blogspot.com/
E|------------------------|------------------------|
B|------------------------|------------------------|
G|------------------------|------------------------|
D|------------------------|------------------------|
A|---------------- 0 1--10|---- 8-- 7--------------|
E| 3-- 3-- 3 3------------|------------10 8-- 7----|
http://classicalguitartablature.blogspot.com/
E|------------------------|------------ 0----------|
B|------------------------|---- 1-- 1-- 1------ 3--|
G|------------------------|---- 0-- 0-- 0------ 0--|
D|------------------------|---- 2-------------- 2--|
A|------------------------| 3-- 3-- 3-- 3----------|
E| 3-- 3-- 3-- 3-- 1-- 0--|------------------------|
http://classicalguitartablature.blogspot.com/
E|------------------------| 0------ 0-- 0------ 0--|
B| 1-- 1-- 1-- 1------ 1--| 1------ 1-- 1------ 1--|
G| 0-- 0-- 0-- 0----------| 0------ 0-- 0------ 0--|
D| 2-- 2-- 2-- 2----------|------------------------|
A|---- 3-- 3-- 3----------| 3-- 3-- 3-- 3-- 3-- 3--|
E|------------------------|------------------------|
http://classicalguitartablature.blogspot.com/
E| 3----------------------| 5------------ 3 1-- 1--|
B| 5------------------ 6--|------------------ 3-- 3|
G| 3---------- 3----------|------------------------|
D|------------ 5----------|------------------------|
A| 3-- 3-- 3-- 3-- 3-- 3--|------------------------|
E|------------------------| 1-- 1-- 1-- 1----------|
http://classicalguitartablature.blogspot.com/
E|------------------------|------------------------|
B| 3 1-- 1------ 1 3------|-- 1-- 3------------ 3--|
G|------------------------|-- 1-- 1-------- 1------|
D|------------------------|-- 3-- 3-- 3------------|
A|------------------------|------------------------|
E| 1-- 1-- 1-- 1-------- 1|------------------------|
http://classicalguitartablature.blogspot.com/
E|------------------------|-------- 0-- 0-- 0-- 0--|
B| 9 8 6 8-------- 8------|---- 4---- 4-- 4-- 4-- 4|
G| 7-- 7------ 7----------|---- 6------------------|
D| 6-- 6-- 6---------- 6--|------------------------|
A| 8----------------------| 0-- 0-- 0-- 0-- 0-- 0--|
E|------------------------|------------------------|
http://classicalguitartablature.blogspot.com/
E| 0-- 0-- 0-- 5-- 0-- 0--|------------------------|
B|------------------------| 5-- 5-- 5-- 5-- 5-- 5--|
G|------------------------| 6-- 6-- 6-- 6-- 6-- 6--|
D|------------------------| 5-- 5-- 5-- 5-- 5-- 5--|
A| 0-- 0-- 0-- 0-- 0-- 0--| 0-- 0-- 0-- 0-- 0-- 0--|
E|------------------------|------------------------|
http://classicalguitartablature.blogspot.com/
E|------------ 5-- 5-- 5--| 2 0--------------------|
B| 5-- 5-- 5------ 5-- 5--| 3-- 3---------- 3------|
G| 6-- 6-- 6-- 6-- 6-- 6--| 2---------- 2------ 2--|
D| 5-- 5-- 5--------------|-------- 4--------------|
A| 0-- 0-- 0-- 0-- 0-- 0--| 5----------------------|
E|------------------------|------------------------|
http://classicalguitartablature.blogspot.com/
E| 0---------- 0----------| 0---------- 0----------|
B| 3------ 3-- 3-- 3-- 3--| 3------ 3-- 3------ 3--|
G| 2------ 2-- 2-- 2------| 2------ 2-- 2------ 2--|
D|---- 4-- 4---------- 4--|---- 4-- 4---------- 4--|
A| 5---------- 5----------| 5---------- 5----------|
E|------------------------|------------------------|
http://classicalguitartablature.blogspot.com/
E|------------------------|------------------------|
B|------------------------|---------- 0------------|
G| 0---------- 0------ 0--| 0 0-- 0-- 0------ 2----|
D| 0---------- 0----------| 0----------------------|
A|------------------------|------------------------|
E| 3---------- 3----------| 3-------- 3------------|
http://classicalguitartablature.blogspot.com/
E|------------------------|------------------------|
B|------------------------|------------ 0----------|
G| 0---------- 0------ 0--| 0-- 0-- 0---------- 2--|
D| 0---------- 0----------| 0----------------------|
A|------------------------|------------------------|
E| 3---------- 3----------| 3---------- 3----------|
http://classicalguitartablature.blogspot.com/
E|------------ 3-- 3-- 3--|------------ 3 3-- 3----|
B|------------------------|-------------------- 3--|
G| 0-- 0-- 0--------------| 0-- 0-- 0--------------|
D| 0----------------------| 0----------------------|
A|------------------------|------------------------|
E| 3---------- 3----------| 3---------- 3----------|
http://classicalguitartablature.blogspot.com/
E|------------------------|---------- 3------------|
B| 0------ 0-- 1------ 1--| 3------ 3-- 1-------- 8|
G| 0------ 0-- 2------ 2--| 0------------------ 0 9|
D|---- 0---------- 0---- 0|---- 0---- 2---- 2----10|
A|------------------------|------------ 3----------|
E| 3---------- 2-------- 0|------------------------|
http://classicalguitartablature.blogspot.com/
E|------------------------|------------ 7-- 7---- 7|
B|---- 8------------------|------------------10----|
G|---- 9------------------|------------------------|
D|----10------------------|------------------------|
A|------------------------|------------------------|
E|10--10------------------|------------------------|
http://classicalguitartablature.blogspot.com/
E|--10--------------------|---------------- 7------|
B|------------------------|--------------10 8--10 8|
G|------------------------|------------------------|
D|------------------------|------------------------|
A|------------------------|------------------------|
E|------------------------|------------------------|
http://classicalguitartablature.blogspot.com/
E|------------------------|------------------------|
B|------------------------|------------------------|
G|-- 9 7------------------|------------------------|
D|-------- 9 7------------|-------- 7--------------|
A|--------------10-- 7----|----------------10------|
E|------------------------|10----------------------|
http://classicalguitartablature.blogspot.com/
E|------------------------|------------------------|
B|------------------------|------------------------|
G|------------------------|------------------------|
D|------------------------|------------------------|
A|------------------------|------------------------|
E|------------------------|------------------------|
http://classicalguitartablature.blogspot.com/
0 com

Do That To Me One More Time (BASIC)

Captain And Tenille's tune fingerstyle chord melody guitar BASIC arrangement played in the key of C.

Do That To Me One More Time-Captain And Tenille-BASIC ARRANGEMENT played In the key of C.
http://classicalguitartablature.blogspot.com/
E|--------------------------------| 0-- 0-- 0-- 0-- 0-- 1-- 3------|
B|-------- 1-------------- 1------| 1-- 1-- 1-- 1-- 1-- 1-- 1-- 1--|
G|-------- 2-------------- 2------| 0-- 0-- 0-- 0-- 0-- 0-- 0-- 2--|
D|---- 3-------------- 3----------|---------------------------- 2--|
A|--------------------------------| 3---------- 3-- 3--------------|
E| 3---------- 3-- 3---------- 3--|--------------------------------|
http://classicalguitartablature.blogspot.com/
E|------------------------ 0------|--------------------------------|
B|-------- 1------ 1-- 3 1--------|-------------------- 1----------|
G|---- 2------ 2------ 2------ 2--|-------- 2-- 0-- 2---------- 2--|
D|--------------------------------|---- 3------ 3-- 3------ 3-- 3--|
A| 0---------- 0-- 0--------------|--------------------------------|
E|--------------------------------| 1---------- 1-- 1--------------|
http://classicalguitartablature.blogspot.com/
http://classicalguitartablature.blogspot.com/
E|--------------------------------| 0-- 0-- 0-- 0-- 0-- 1-- 3------|
B|--------------------------------| 1-- 1-- 1-- 1-- 1-- 1-- 1-- 1--|
G|---- 0------------ 2------ 0----| 0-- 0-- 0-- 0-- 0-- 0-- 0-- 2--|
D|------ 3---------- 3------ 0----|---------------------------- 2--|
A|-------------- 0------ 2--------| 3---------- 3-- 3--------------|
E| 3---------- 3------------------|--------------------------------|
http://classicalguitartablature.blogspot.com/
E|---------------- 5--------------|--------------------------------|
B|-------- 1------ 5-- 8-- 5-- 3 1|------------------ 1-------- 5--|
G|------------ 2-- 5-- 5-- 5-- 2--|-------- 2-- 0-- 2---------- 4--|
D|---- 2---------- 5-- 5-- 5-- 3--|---- 3------ 3-- 3------ 3-- 3--|
A| 0---------- 0-- 0--------------|--------------------------------|
E|--------------------------------| 1---------- 1-- 1--------------|
http://classicalguitartablature.blogspot.com/
E|--------------------------------|-------- 5----------------------|
B|---- 3------ 6------ 5----------|-------- 5---------- 8------ 5--|
G|---- 4-- 0-- 4------ 4------ 4--|-------------------- 5------ 4--|
D|------------ 3---------- 3------|---- 5------------------ 5-- 3--|
A|--------------------------------| 0---------- 0-- 0--------------|
E| 3-------------- 4--------------|--------------------------------|
http://classicalguitartablature.blogspot.com/
E|--------------------------------| 0------------------------------|
B|-- 3------------------------ 3--| 1-- 1-- 3-- 1------------------|
G|---- 5------------------ 5------| 0-- 0-- 0-- 0---------- 0------|
D|-------- 3---------- 3----------|---- 2-- 2-- 2------ 2----------|
A|--------------------------------|--------------------------------|
E| 4---------- 4-- 4--------------| 3---------- 3-- 3---------- 3--|
http://classicalguitartablature.blogspot.com/
E|--------------------------------|--------------------------------|
B|--------------------------------|--------------------------------|
G|-------- 2-------------- 2-- 2--|---- 0------------------ 0-- 0--|
D|---- 2-------------- 2------ 3--|-------- 3---------- 3----------|
A|--------------------------------|--------------------------------|
E| 2---------- 2-- 2--------------| 3-------- 3---- 3--------------|
http://classicalguitartablature.blogspot.com/
E| 1-- 1 1---- 3-- 0--------------|------ 0---- 0 0---- 1-- 3------|
B| 1-- 1-- 1-- 1 0-- 3-- 1---- 3--|-- 1-- 1---- 1-- 1-- 1-- 1-- 1--|
G| 0-- 0-- 0-- 0-------------- 0--|---- 0 0---- 0-- 0-- 0-- 0-- 2--|
D|---------------------------- 2--|-- 2------------------------ 2--|
A|--------------------------------| 3---------- 3-- 3--------------|
E| 3------------------------------|--------------------------------|
http://classicalguitartablature.blogspot.com/
E|------------------------ 0------|--------------------------------|
B|-------- 1------ 1-- 3 1--------|-------------------- 1----------|
G|---------- 2---------------- 2--|-------- 2-- 0-- 2---------- 2--|
D|---- 2--------------------------|---- 3------ 3-- 3------ 3-- 3--|
A| 0---------- 0-- 0--------------|--------------------------------|
E|--------------------------------| 1---------- 1-- 1--------------|
http://classicalguitartablature.blogspot.com/
E|--------------------------------| 0-- 0-- 0-- 0-- 0-- 1-- 3------|
B|--------------------------------| 1-- 1-- 1-- 1-- 1-- 1-- 1-- 1--|
G|---- 0------------ 2------ 0----| 0-- 0-- 0-- 0-- 0-- 0-- 0-- 2--|
D|------ 3---------- 3------ 0----|---------------------------- 2--|
A|-------------- 0------ 2--------| 3---------- 3-- 3--------------|
E| 3---------- 3------------------|--------------------------------|
http://classicalguitartablature.blogspot.com/
E|---------------- 5--------------|--------------------------------|
B|-------- 1------ 5-- 8-- 5-- 3 1|------------------ 1-------- 5--|
G|------------ 2-- 5-- 5-- 5-- 2--|-------- 2-- 0-- 2---------- 4--|
D|---- 2---------- 5-- 5-- 5-- 3--|---- 3------ 3-- 3------ 3-- 3--|
A| 0---------- 0-- 0--------------|--------------------------------|
E|--------------------------------| 1---------- 1-- 1--------------|
http://classicalguitartablature.blogspot.com/
E|--------------------------------|-------- 5----------------------|
B|---- 3------ 6------ 5----------|-------- 5---------- 8------ 5--|
G|---- 4-- 0-- 4------ 4------ 4--|-------------------- 5------ 4--|
D|------------ 3---------- 3------|---- 5------------------ 5-- 3--|
A|--------------------------------| 0---------- 0-- 0--------------|
E| 3-------------- 4--------------|--------------------------------|
http://classicalguitartablature.blogspot.com/
E|--------------------------------| 0------------------------------|
B|-- 3------------------------ 3--| 1-- 1-- 3-- 1------------------|
G|---- 5------------------ 5------| 0-- 0-- 0-- 0---------- 0------|
D|-------- 3---------- 3----------|---- 2-- 2-- 2------ 2----------|
A|--------------------------------|--------------------------------|
E| 4---------- 4-- 4--------------| 3---------- 3-- 3---------- 3--|
http://classicalguitartablature.blogspot.com/
E|--------------------------------|--------------------------------|
B|--------------------------------|--------------------------------|
G|-------- 2-------------- 2-- 2--|---- 0------------------ 0-- 0--|
D|---- 2-------------- 2------ 3--|-------- 3---------- 3----------|
A|--------------------------------|--------------------------------|
E| 2---------- 2-- 2--------------| 3-------- 3---- 3--------------|
http://classicalguitartablature.blogspot.com/
E| 1-- 1 1---- 3-- 0--------------|------ 0---- 0 0---- 1-- 3------|
B| 1-- 1-- 1-- 1 0-- 3-- 1---- 3--|-- 1-- 1---- 1-- 1-- 1-- 1-- 1--|
G| 0-- 0-- 0-- 0-------------- 0--|---- 0 0---- 0-- 0-- 0-- 0-- 1--|
D|---------------------------- 2--|-- 2------------------------ 1--|
A|--------------------------------| 3---------- 3-- 3--------------|
E| 3------------------------------|--------------------------------|
http://classicalguitartablature.blogspot.com/
E|--------------------------------|--------------------------------|
B|------------ 1-- 1-------- 1----|---- 1--------------------------|
G|-------- 1------ 1-------- 2----|---- 0--------------------------|
D|---- 1---------- 1------ 1------|-- 2----------------------------|
A| 1------------ 1-------- 2------|-- 3----------------------------|
E|--------------------------------|--------------------------------|
http://classicalguitartablature.blogspot.com/
0 com

Like A Prayer (BASIC)

Madonna's tune fingerstyle chord melody guitar BASIC arrangement played in the key of Am.

Like A Prayer-Madonna-Queen-BASIC ARRANGEMENT played In the key of Am.
http://classicalguitartablature.blogspot.com/
E|--------------------------------|--------------------------------|
B|------ 1-------- 1---- 1--------| 0-------- 0---- 3-------- 3----|
G|------ 2-------- 2---- 2------ 0|------ 0-------------- 0--------|
D|---- 2------ 2---- 2-------- 2--|---- 0-------------- 0----------|
A| 0------------------------------| 0------------------------------|
E|--------------------------------|--------------------------------|
http://classicalguitartablature.blogspot.com/
E|--------------------------------|--------------------------------|
B| 1------ 1------ 1---- 1------ 0|---------- 0-- 3---------- 3----|
G| 2------ 2------ 2---- 2------ 0|------ 0-------------- 0--------|
D|---- 2---- 2------ 2------ 2----|-- 0-------------- 0------------|
A| 0---------------------------- 0|--------------------------------|
E|--------------------------------|--------------------------------|
http://classicalguitartablature.blogspot.com/
http://classicalguitartablature.blogspot.com/
E|------ 0-------- 0---- 0--------|---------------- 1---------- 1 0|
B| 1------ 1------ 1---- 1------ 3|------------ 3-- 1--------------|
G|------------------------------ 0|-------- 0-------------- 2------|
D|---- 2------ 2------ 2------ 2--|---- 0-------------- 3----------|
A| 0------------------------------| 2------------------------------|
E|--------------------------------|---------------- 1--------------|
http://classicalguitartablature.blogspot.com/
E|---------- 0------------------ 0|---------- 0--------------------|
B|---------------- 1------ 1------| 1------------ 3---------- 3-- 1|
G|-------- 0------ 2------ 2------|-------- 0---- 0------ 0------ 2|
D|---- 2-------------- 3------ 3--|---- 2-------------- 0----------|
A|--------------------------------|--------------------------------|
E| 0-------------- 1--------------| 3-------------- 3--------------|
http://classicalguitartablature.blogspot.com/
E|--------------------------------|--------------------------------|
B|--------------------------------|------ 3---- 3-- 3-- 3------ 1--|
G|---- 2--------------------------|------ 0---- 0-- 0-- 0------ 0--|
D| 2------------------------------|------ 2---- 2-- 2-- 2------ 0--|
A| 0------------------------------| 3---------- 3------------------|
E|--------------------------------|--------------------------------|
http://classicalguitartablature.blogspot.com/
E|--------------------------------|--------------------------------|
B|---- 3------ 3-- 3-- 3------ 1--|------ 3---- 3-- 3-- 3------ 1--|
G|---- 0------ 0-- 0-- 0------ 2--|------ 2---- 2-- 2-- 2------ 0--|
D|---- 0------ 0-- 0-- 0------ 3--|------ 3---- 3-- 3-- 3------ 2--|
A|--------------------------------|--------------------------------|
E| 3---------- 3------------------| 1---------- 1------------------|
http://classicalguitartablature.blogspot.com/
E|---------------- 0--------------|--------------------------------|
B|---- 3 3-- 1---- 1------ 3------| 1---- 3---- 3-- 3-- 3------ 1--|
G|---- 0-- 0 0---- 0------ 0------| 0---- 0---- 0-- 0-- 0------ 0--|
D|---- 2-- 2 2------------ 0------| 2---- 2---- 2-- 2-- 2------ 0--|
A|---------------- 0------ 2------| 3---------- 3------------------|
E| 0------------------------------|--------------------------------|
http://classicalguitartablature.blogspot.com/
E|---------------- 0--------------|--------------------------------|
B|---- 3------ 3-- 1---- 1---- 1--|------ 3---- 3-- 3-- 3------ 1--|
G|---- 0------ 0-------- 0---- 2--|------ 2---- 2-- 2-- 2------ 0--|
D|---- 0------ 0------ 0------ 3--|------ 3---- 3-- 3-- 3------ 2--|
A|--------------------------------|--------------------------------|
E| 3---------- 3------------------| 1---------- 1------------------|
http://classicalguitartablature.blogspot.com/
E|---------------- 0--------------|--------------------------------|
B|---- 3 3-- 1---- 1------ 3------| 1---------------------- 1-- 1--|
G|---- 0-- 0 0---- 0------ 0------| 2------ 2-- 2-- 2--------------|
D|---- 2-- 2 2------------ 0------|---- 3-------------- 3----------|
A|---------------- 0------ 2------|--------------------------------|
E| 0------------------------------| 1------------------------------|
http://classicalguitartablature.blogspot.com/
E|--------------------------------|--------------------------------|
B|------------ 1-------------- 1--|-------- 3------ 3------ 1------|
G|-------- 0-------------- 0------|-------- 0------ 0------ 0------|
D|---- 2-------------- 2----------|---- 0------ 0------ 0------ 0--|
A| 3------------------------------|--------------------------------|
E|--------------------------------| 3------------------------------|
http://classicalguitartablature.blogspot.com/
E| 0------------------------------|--------------------------------|
B| 1------ 1-------------- 0------| 1---------------------- 1-- 1--|
G|-------- 2------ 2--------------| 2------ 2------ 2--------------|
D| 2-- 2------ 2------ 2------ 2--|---- 3------ 3------ 3----------|
A| 0------------------------------|--------------------------------|
E|--------------------------------| 1------------------------------|
http://classicalguitartablature.blogspot.com/
E|-------- 0----------------------|--------------------------------|
B|-------- 1------ 3------ 3-- 3--|------------ 3---------- 3-- 3--|
G|---------------- 0------ 0------|-------- 0---------- 0----------|
D|---- 2------ 2------ 2------ 2--|---- 0---------- 0--------------|
A| 3------------------------------|--------------------------------|
E|--------------------------------| 3------------------------------|
http://classicalguitartablature.blogspot.com/
E|-------- 0----------------------|--------------------------------|
B| 3-------------- 1------ 3------|------------------------ 1 1----|
G| 0-------------- 0--------------|-------- 2-- 2-- 2--------------|
D|---- 0------ 0------ 0------ 0--|---- 3-------------- 3----------|
A|--------------------------------|--------------------------------|
E| 3------------------------------| 1------------------------------|
http://classicalguitartablature.blogspot.com/
E|--------------------------------|--------------------------------|
B|---------------- 1---------- 1--|-------- 3------ 3------ 1------|
G|-------- 0-------------- 0------|-------- 0------ 0------ 0------|
D|---- 2------ 2------ 2----------|---- 0------ 0------ 0------ 0--|
A| 3------------------------------|--------------------------------|
E|--------------------------------| 3------------------------------|
http://classicalguitartablature.blogspot.com/
E| 0------------------------------|--------------------------------|
B| 1------ 1-------------- 0------| 1---------------------- 1-- 1--|
G|-------- 2------ 2--------------| 2------ 2------ 2--------------|
D| 2-- 2------ 2------ 2------ 2--|---- 3------ 3------ 3----------|
A| 0------------------------------|--------------------------------|
E|--------------------------------| 1------------------------------|
http://classicalguitartablature.blogspot.com/
E|-------- 0----------------------|--------------------------------|
B|-------- 1------ 3------ 3------| 3---------- 3---------- 3------|
G|---------------- 0------ 0------| 0------ 0---------- 0----------|
D|---- 2------ 2------ 2------ 2--|---- 0---------- 0---------- 0--|
A| 3------------------------------|--------------------------------|
E|--------------------------------| 3------------------------------|
http://classicalguitartablature.blogspot.com/
E|------ 0-------- 1------ 0------|--------------------------------|
B| 3------ 3------ 3------ 3------|------ 3---- 3-- 3-- 3------ 1--|
G| 0---------- 0------------------|------ 0---- 0-- 0-- 0------ 0--|
D|---- 0-------------- 0------ 0--|------ 2---- 2-- 2-- 2------ 0--|
A|--------------------------------| 3---------- 3------------------|
E| 3------------------------------|--------------------------------|
http://classicalguitartablature.blogspot.com/
E|--------------------------------|--------------------------------|
B|---- 3------ 3-- 3-- 3------ 1--|------ 3---- 3-- 3-- 3------ 1--|
G|---- 0------ 0-- 0-- 0------ 2--|------ 2---- 2-- 2-- 2------ 0--|
D|---- 0------ 0-- 0-- 0------ 3--|------ 3---- 3-- 3-- 3------ 2--|
A|--------------------------------|--------------------------------|
E| 3---------- 3------------------| 1---------- 1------------------|
http://classicalguitartablature.blogspot.com/
E|---------------- 0--------------|--------------------------------|
B|---- 3 3-- 1---- 1------ 3------| 1---- 3---- 3-- 3-- 3------ 1--|
G|---- 0-- 0 0---- 0------ 0------| 0---- 0---- 0-- 0-- 0------ 0--|
D|---- 2-- 2 2------------ 0------| 2---- 2---- 2-- 2-- 2------ 0--|
A|---------------- 0------ 2------| 3---------- 3------------------|
E| 0------------------------------|--------------------------------|
http://classicalguitartablature.blogspot.com/
E|---------------- 0--------------|--------------------------------|
B|---- 3------ 3-- 1---- 1---- 1--|------ 3---- 3-- 3-- 3------ 1--|
G|---- 0------ 0-------- 0---- 2--|------ 2---- 2-- 2-- 2------ 0--|
D|---- 0------ 0------ 0------ 3--|------ 3---- 3-- 3-- 3------ 2--|
A|--------------------------------|--------------------------------|
E| 3---------- 3------------------| 1---------- 1------------------|
http://classicalguitartablature.blogspot.com/
E|---------------- 0--------------|--------------------------------|
B|---- 3 3-- 1---- 1------ 3------| 1---------------- 0-- 1--------|
G|---- 0-- 0 0---- 0------ 0------| 2------ 2-- 2-- 2--------------|
D|---- 2-- 2 2------------ 0------|---- 2---------------------- 2--|
A|---------------- 0------ 2------| 0-------------- 0--------------|
E| 0------------------------------|--------------------------------|
http://classicalguitartablature.blogspot.com/
E|--------------------------------|--------------------------------|
B|---- 0-- 0-- 0-- 0 1-- 3--------|------------------ 0 1----------|
G|---- 0-- 0-- 0-- 0 0------------|---- 2-- 2-- 2 2----------------|
D|---- 0-- 0-- 0-- 0---------- 0--|---- 2-- 2-- 2 2------------ 2--|
A| 0-------------- 0--------------| 0-------------- 0--------------|
E|--------------------------------|--------------------------------|
http://classicalguitartablature.blogspot.com/
E|--------------------------------|---- 0-- 0-- 0-- 0--------------|
B|---- 0-- 0-- 0-- 0-- 1 3--------|---- 1-- 1-- 1-- 1---- 1---- 1--|
G|---- 0-- 0-- 0-- 0--------------|---- 2-- 2-- 2-- 2---- 2---- 2--|
D|---- 0-- 0-- 0-- 0---------- 0--|---------------------- 2---- 2--|
A| 0-------------- 0--------------| 0-------------- 0--------------|
E|--------------------------------|--------------------------------|
http://classicalguitartablature.blogspot.com/
E|---- 0-- 0-- 0-- 0--------------|---------------------- 0-- 0----|
B|---- 0-- 0-- 0-- 1---- 1---- 1--|---- 1-- 1-- 1-- 1 3-- 1--------|
G|---- 0-- 0-- 0-- 2---- 2---- 2--|---- 0-- 0-- 0-- 2 2------------|
D|---------------------- 3---- 3--|---- 2-- 2-- 2-- 3 3------------|
A| 2------------------------------|--------------------------------|
E|---------------- 1--------------| 0-------------- 1--------------|
http://classicalguitartablature.blogspot.com/
E|---------------- 0--------------|---- 0 0-- 1-- 3------------ 5--|
B| 3-- 3-- 3-- 3-- 3------ 3------|---- 1 1------ 1-------- 1------|
G| 0-- 0-- 0-- 0-- 0------ 0------|---- 0 0-- 0-------- 0----------|
D| 0-- 0-- 0-- 0------ 0------ 0--|--------------------------------|
A|--------------------------------| 3-------------- 3--------------|
E| 3-------------- 3--------------|--------------------------------|
http://classicalguitartablature.blogspot.com/
E| 5 3-- 3------------------------|---- 1 1-- 3-- 5-------- 5------|
B| 0 0-- 0-------------------- 0--|---- 1 1-- 1-- 3-------- 3------|
G|------------------------ 0------|---- 2 2-- 2-- 2---- 2---- 2----|
D|---------- 0-------- 0----------|--------------------------------|
A|--------------------------------|--------------------------------|
E| 3-------------- 3------------ 1|-------------- 1----------------|
http://classicalguitartablature.blogspot.com/
E| 3---------------- 0------------|---- 0 0-- 1-- 3------------ 5--|
B| 0---------- 0-- 1------ 3------|---- 1 1------ 1-------- 1------|
G|-------- 0-------------- 0------|---- 0 0-- 0-------- 0----------|
D|---- 2-------------- 2------ 0--|--------------------------------|
A|---------------- 0------ 2------| 3-------------- 3--------------|
E| 0------------------------------|--------------------------------|
http://classicalguitartablature.blogspot.com/
E| 5 3-- 3------------------------|---- 1 1-- 3-- 5-------- 5------|
B| 0 0-- 0-------------------- 0--|---- 1 1-- 1-- 3-------- 3------|
G|------------------------ 0------|---- 2 2-- 2-- 2---- 2---- 2----|
D|---------- 0-------- 0----------|--------------------------------|
A|--------------------------------|--------------------------------|
E| 3-------------- 3------------ 1|-------------- 1----------------|
http://classicalguitartablature.blogspot.com/
E| 3---------------- 0------------|--------------------------------|
B| 0---------- 0-- 1------ 3------|---------- 1------ 1------ 1----|
G|-------- 0-------------- 0------|---------- 2------ 2------ 2----|
D|---- 2-------------- 2------ 0--|------ 2------ 2------ 2--------|
A|---------------- 0------ 2------| 0------------------------------|
E| 0------------------------------|--------------------------------|
http://classicalguitartablature.blogspot.com/
E|--------------------------------|--------------------------------|
B|---- 0------------ 0---- 3------|---------- 3--------------------|
G|---- 0-------- 0----------------|-- 0----------------------------|
D| 2-------- 0---------------- 0--|--------------------------------|
A|---- 0--------------------------|--------------------------------|
E|--------------------------------|--------------------------------|
http://classicalguitartablature.blogspot.com/
E|--------------------------------|--------------------------------|
B|-- 1----------------------------|--------------------------------|
G|-- 0----------------------------|--------------------------------|
D| 2------------------------------|--------------------------------|
A| 0------------------------------|--------------------------------|
E|--------------------------------|--------------------------------|
http://classicalguitartablature.blogspot.com/