To celebrate the anniversary, I am giving you (finally...) : iPhone LickByNeck !!!!!!
0 com

Famous Nokia Ringtone (BASIC)

Francisco Tarrega's tune fingerstyle chord melody guitar BASIC arrangement played in the key of E.

Famous Nokia Ringtone-Francisco Tarrega-Intermediate Arrangement played in the key of E.
http://classicalguitartablature.blogspot.com/
E| 7-- 5---------------- 4|---- 2---------------- 2|
B|---------------- 4------|------------------------|
G|-------- 6--------------|-------- 2------ 4------|
D|------------------------|------------------------|
A|------------------------|------------------------|
E|------------------------|------------------------|
http://classicalguitartablature.blogspot.com/
E|-- 0------------------ 0|---------------------- 7|
B|-------------- 0--------|---------------------- 5|
G|------ 1----------------|---------------------- 6|
D|------------------------|------------------------|
A|------------------------|---------------------- 0|
E|------------------------|------------------------|
http://classicalguitartablature.blogspot.com/
http://classicalguitartablature.blogspot.com/
E|-- 5------------------ 4|-- 2------------------ 2|
B|-------------- 4------ 2|-- 2------------------ 0|
G|-------- 6------------ 2|------ 2------ 4------ 1|
D|------------------------|------------------------|
A|---------------------- 2|------------------------|
E|------------------------|-------------------- 0--|
http://classicalguitartablature.blogspot.com/
E|-- 0--------------------|------------------------|
B|-------------- 0--------| 5-------------------- 5|
G|------ 1----------------| 4-------------- 4---- 6|
D|---------------------- 6|-------- 6--------------|
A|---------------------- 4|---------------------- 0|
E|------------------------|------------------------|
http://classicalguitartablature.blogspot.com/
E| 7 5------------------ 4|------------------------|
B|-------------- 4------ 7|-- 7--------------------|
G|------ 6-------------- 4|-------------- 4------ 4|
D|---------------------- 7|------ 7-------------- 6|
A|------------------------|------------------------|
E|---------------------- 7|-------------------- 0--|
http://classicalguitartablature.blogspot.com/
E|------------------------|------------------------|
B| 7 5--------------------| 5-------------- 5------|
G|---------------- 4------| 4---------- 4-------- 6|
D|-------- 6------------ 6|------ 6----------------|
A|---------------------- 5|---------------------- 4|
E|------------------------|------------------------|
http://classicalguitartablature.blogspot.com/
E| 7-- 5------------------| 4-- 2---------------- 2|
B| 5------------ 4--------| 4-------------------- 0|
G|-------- 6------------ 2|-------- 2---- 4------ 1|
D|------------------------|------------------------|
A|-------------------- 3--|-------------------- 2--|
E|------------------------|------------------------|
http://classicalguitartablature.blogspot.com/
E|---- 0------------------| 0----------------------|
B|---------------- 0------| 2---------- 2-------- 7|
G|-------- 1------------ 1|-------- 1------ 1---- 6|
D|-------- 2--------------|---- 2------------------|
A|---------------------- 1|---------------------- 0|
E|------------------------|------------------------|
http://classicalguitartablature.blogspot.com/
E| 7-- 5---------------- 4|------------------------|
B|-------------- 4------ 7|---- 7---------------- 5|
G|-------- 6------------ 4|-------------- 4------ 4|
D|------------------------|-------- 7--------------|
A|------------------------|------------------------|
E|-------------------- 4--|-------------------- 3--|
http://classicalguitartablature.blogspot.com/
E| 2-------------------- 0|---------------------- 7|
B|---- 5---------- 0---- 1|------------ 1--------10|
G|-------- 1------------ 2|------ 2-------- 2------|
D|------ 2---- 2----------| 2-- 2------------------|
A|------------------------|------------------------|
E|-------- 2--------------| 1----------------------|
http://classicalguitartablature.blogspot.com/
E|------------------------| 4----------------------|
B|----10---------- 4------| 7-- 7------------------|
G| 9-- 9-- 6--------------| 4-- 4---------- 4---- 4|
D|---- 7-- 7-- 7----------|---- 7-- 7------------ 6|
A| 9------ 8--------------| 7------ 6------------ 5|
E|------------------------|------------------------|
http://classicalguitartablature.blogspot.com/
E|---- 0------------------|------------------------|
B| 7----------------------| 5---------- 5----------|
G|---------------- 4------|-------- 2------ 2---- 9|
D|-------- 6--------------|---- 6------------------|
A|------------------------| 4----------------------|
E|------------------------|---------------------- 8|
http://classicalguitartablature.blogspot.com/
E| 7-------------------- 4|---------------------- 2|
B|10--10---------- 4---- 7|---- 7---------------- 5|
G|-------- 6------------ 6|---------------- 4---- 4|
D|-------- 6-- 6----------|-------- 7--------------|
A|------------------------|------------------------|
E|-------- 7--------------| 6------ 5--------------|
http://classicalguitartablature.blogspot.com/
E|------------------------|---------------------- 7|
B|---- 5---------- 0------| 5---------- 5--------10|
G|---- 4-- 1--------------| 2------ 2------ 2------|
D|---- 2-- 2--------------|---- 2------------------|
A|------------------------|------------------------|
E| 4------ 3--------------| 2----------------------|
http://classicalguitartablature.blogspot.com/
E|------------------------|------------------------|
B|----10---------- 4------| 9-- 7------------------|
G| 7-- 7-- 6--------------| 6-- 6---------- 4------|
D|---- 9-- 7-- 7----------| 7-- 7-- 7--------------|
A| 8------ 7--------------| 6------ 5--------------|
E|------------------------|------------------------|
http://classicalguitartablature.blogspot.com/
E|------------------------|------------------------|
B| 7-- 5---------- 0------| 5---------- 5----------|
G| 4-- 4-- 1--------------| 6------ 6---------- 6--|
D| 5-- 5-- 2--------------|---- 6-------------- 6--|
A| 4------ 3--------------|------------------------|
E|------------------------| 7-------------- 6------|
http://classicalguitartablature.blogspot.com/
E| 7-- 5---------------- 4|---- 2------------------|
B| 7---- 4-------- 4------| 2-- 2---------- 0------|
G| 5-- 5-- 6--------------| 2-- 2-- 2--------------|
D|------------ 6----------|------------ 0----------|
A|------------------------|------------------------|
E| 5------ 4--------------| 2------ 1--------------|
http://classicalguitartablature.blogspot.com/
E|---- 0------------------|---------------------- 7|
B| 7----------------------| 5---------- 5----------|
G| 7-------------- 4------| 5------ 5--------------|
D| 7------ 6------------ 5|---- 5---------- 5------|
A|-------- 6------------ 5|------------------------|
E| 0----------------------|------------------------|
http://classicalguitartablature.blogspot.com/
E|---- 5------------------| 4 2--------------------|
B| 5-- 5-- 2------ 4------| 2-- 2-------- 0------ 7|
G| 6------ 3------ 3------| 2------ 2------------ 5|
D|-------- 2------ 2------|------------ 3-------- 7|
A| 4------ 3--------------| 2------ 1--------------|
E|------------------------|------------------------|
http://classicalguitartablature.blogspot.com/
E|------------------------| 0----------------------|
B|---- 5---------- 0------| 1---------- 1----------|
G|---- 5-- 1------ 1------| 2------ 2------ 2------|
D|---- 4-- 3------ 2------|---- 2------------------|
A|------------------------|------------------------|
E| 5-- 4-- 3------ 2------| 1-------------------- 0|
http://classicalguitartablature.blogspot.com/
E| 7-------- 5------------|------------------------|
B| 7-------- 7-------- 2--|------ 4----------------|
G| 6------ 6---------- 2--|------ 4----------------|
D|------------------ 4----|---- 2------------------|
A|------ 6-------- 5------|-- 4--------------------|
E|------------------------|------------------------|
http://classicalguitartablature.blogspot.com/
E|------ 4------ 2--------|------------------------|
B|------ 4------ 2--------|------------ 0----------|
G|---- 2-------- 2--------| 2-------- 1------------|
D|---------------------- 3|-------- 2--------------|
A|---- 3------ 2-------- 1|-------- 0--------------|
E|------------------------|------------------------|
http://classicalguitartablature.blogspot.com/
E|------------------------|-- 2--------------------|
B|------------------------|-- 5-------- 5----------|
G|------------------------|-- 4-------- 4----------|
D|------------------------|---------- 3------------|
A|------------------------|------------------------|
E|------------------------| 4------ 3--------------|
http://classicalguitartablature.blogspot.com/
E|------------------------|------------------------|
B|------------------------|---------- 0------------|
G|-------------------- 1--|-------- 2--------------|
D|------------------ 2----|-------- 1--------------|
A|------------------------|------------------------|
E|------------------ 2----|------ 1----------------|
http://classicalguitartablature.blogspot.com/
E|------------------------|---------------- 0------|
B|------------------------|-------------- 2--------|
G|------------------------|-------------- 1--------|
D|------------------------|------------------------|
A|------------------------|------------------------|
E|------------------------|------------ 0----------|
http://classicalguitartablature.blogspot.com/
E|------------------------|------ 7-- 5------------|
B|------------------------|------------------------|
G|------------------------|---------------- 6------|
D|------------------------|------------------------|
A|------------------------|------------------------|
E|------------------------|------------------------|
http://classicalguitartablature.blogspot.com/
E|------------ 0----------|------------------------|
B| 4----------------------|------------------------|
G|------------------------|------------------------|
D|------------------------|------------------------|
A|------------------------|------------------------|
E|------------------------|------------------------|
http://classicalguitartablature.blogspot.com/
0 com

Johnny B Goode (BASIC)

Chuck Berry's tune fingerstyle chord melody guitar BASIC arrangement played in the key of Bb.

Johnny B Goode-Chuck Berry-BASIC Arrangement played in the key of Bb.
http://classicalguitartablature.blogspot.com/
E|--------------------------------| 6-- 6-- 6-- 5-- 6 6---- 5 6-- 6|
B|------------------------ 6-- 8--| 6-- 6-- 6 5 6-- 6-- 6-- 5 6----|
G|-------------------- 6 7--------|--------------------------------|
D|--------------------------------|--------------------------------|
A|--------------------------------|--------------------------------|
E|--------------------------------|--------------------------------|
http://classicalguitartablature.blogspot.com/
E|--------------------------------|--------------------------------|
B| 6-- 9-- 8-- 6------------------|--------------------------------|
G|-------------- 6-- 7------------|--------------------------------|
D|------------------------ 8------| 7-- 8-- 8-- 7-- 8-- 8-- 7-- 8--|
A|---------------------------- 8--| 7-- 8-- 8-- 7-- 8-- 8-- 7 8 8--|
E|--------------------------------|--------------------------------|
http://classicalguitartablature.blogspot.com/
http://classicalguitartablature.blogspot.com/
E|--------------------------------|--------------------------------|
B|---- 6-- 8-- 6------------------|-------- 6---------- 6----------|
G| 6-- 7-- 7-- 7-- 7 5------------| 910-------- 910-------- 910----|
D|-------------------- 8-- 5------|--------------------------------|
A|--------------------------------| 6------ 6------ 6------ 6------|
E|--------------------------------|--------------------------------|
http://classicalguitartablature.blogspot.com/
E|--------------------------------|--------------------------------|
B| 6---------- 6---------- 6------|-------- 6---------- 6----------|
G|---- 9--10------ 910------------| 910-------- 910-------- 910----|
D|--------------------------------|--------------------------------|
A| 6------ 6------ 6------ 6------|--------------------------------|
E|--------------------------------| 6------ 6------ 6------ 6------|
http://classicalguitartablature.blogspot.com/
E|--------------------------------|-------- 6------------ 8---- 6--|
B| 6---------- 6---------- 6------| 5 6-------- 9-- 8-- 6----------|
G|---- 910-------- 910------------|--------------------------------|
D|--------------------------------|--------------------------------|
A|--------------------------------| 8------ 8------ 8------ 8------|
E| 6------ 6------ 6------ 6------|--------------------------------|
http://classicalguitartablature.blogspot.com/
E|------------------------ 6------|--------------------------------|
B| 9-- 8-- 6------------ 6---- 9--| 8-- 6------ 6------ 6----------|
G|---------- 8-- 7------ 7--------|-------- 8------ 8------ 8-- 6 7|
D|-------------------- 8----------|--------------------------------|
A| 6------ 6------ 6------ 6------|--------------------------------|
E|--------------------------------| 6------ 6------ 6------ 6------|
http://classicalguitartablature.blogspot.com/
E|--------------------------------|--------------------------------|
B|--------------------------------| 6-- 6-- 6-- 6-- 6-- 6----------|
G|--------------------------------| 7-- 7-- 7 7---- 7-- 7-- 8-- 7--|
D| 8------------------------------| 6------ 6-- 6-- 6-- 6----------|
A| 8------10-- 8------ 8--10-- 8--|--------------------------------|
E| 6------ 6------ 6------ 6------| 6------ 6------ 6------ 6------|
http://classicalguitartablature.blogspot.com/
E|--------------------------------|--------------------------------|
B|------------ 6------------------| 6-- 6-- 6-- 6-- 6-- 6----------|
G| 8-- 7--------------------------| 7-- 7-- 7------ 7-- 7-- 8-- 7--|
D| 6-- 6------------ 6-------- 8--| 6-- 6-- 6-- 6-- 6------ 6-- 6--|
A|--------------------------------|--------------------------------|
E| 6------ 6------ 6------ 6------| 6------ 6------ 6------ 6------|
http://classicalguitartablature.blogspot.com/
E|--------------------------------|--------------------------------|
B|--------------------------------| 6------------------------------|
G| 8 7----------------------------| 6-- 6-- 8-- 6-- 8-- 6-- 8-- 6--|
D| 6-- 6------ 8------ 8------ 8--|---- 8-- 8-- 8-- 8-- 8-- 8-- 8--|
A|--------------------------------| 6------ 6------ 6------ 6------|
E| 6------ 6------ 6------ 6------|--------------------------------|
http://classicalguitartablature.blogspot.com/
E|--------------------------------|--------------------------------|
B|------------ 6------------------| 6-- 6-- 6-- 6-- 6-- 6----------|
G| 8-- 6--------------------------| 7-- 7-- 7------ 7-- 7-- 8-- 7--|
D| 8-- 8-------------- 8------ 8--| 6-- 6-- 6-- 6-- 6------ 6-- 6--|
A| 6------ 6------ 6------ 6------|--------------------------------|
E|--------------------------------| 6------ 6------ 6------ 6------|
http://classicalguitartablature.blogspot.com/
E|--------------------------------|--------------------------------|
B|---------------------------- 6--| 6------------------------------|
G| 8 7----------------------------|---- 7-- 8-- 7 8---- 7-- 8-- 7--|
D| 6-- 6------ 8------ 8------ 8--|--------------------------------|
A|--------------------------------| 8------ 8------ 8------ 8------|
E| 6------ 6------ 6------ 6------|--------------------------------|
http://classicalguitartablature.blogspot.com/
E|--------------------------------|--------------------------------|
B|------------ 6------------------| 6-- 6-- 6-- 6------------------|
G| 8-- 7------------------ 6-- 8--| 7-- 7-- 7---------- 6-- 8-- 6--|
D| 8------------------ 8----------| 6-- 6-- 6-- 6------------------|
A| 6------ 6---- 6-------- 6------|--------------------------------|
E|--------------------------------| 6------ 6------ 6------ 6------|
http://classicalguitartablature.blogspot.com/
E|--------------------------------|--------------------------------|
B|-------------------- 6------ 6--|---------------------------- 6--|
G| 8-- 6---------------------- 7--|---------------------------- 7--|
D|-------- 8-- 8-------------- 6--|---- 6-- 6-- 6-- 6-- 8------ 6--|
A|--------------------------------|--------------------------------|
E| 6------ 6------ 6------ 6------| 6------ 6------ 6------ 6------|
http://classicalguitartablature.blogspot.com/
E|--------------------------------|--------------------------------|
B|---- 6---------- 6------ 6-- 6--|---------------------------- 6--|
G|---- 7-- 8-- 7-- 7------ 7-- 7--|---------------------------- 7--|
D|---- 6---------- 6--------------|---- 6-- 6-- 6-- 6-- 8------ 6--|
A|--------------------------------|--------------------------------|
E| 6------ 6------ 6------ 6------| 6------ 6------ 6------ 6------|
http://classicalguitartablature.blogspot.com/
E|--------------------------------|--------------------------------|
B|-- 6------------ 6------ 6-- 6--|---------------------------- 6--|
G|------ 8-- 7---- 7---------- 6--|---------------------------- 6--|
D|---------------------------- 8--|---- 6-- 6-- 6-- 6-- 8----------|
A|--------------------------------| 6------ 6------ 6------ 6------|
E| 6------ 6------ 6------ 6------|--------------------------------|
http://classicalguitartablature.blogspot.com/
E|--------------------------------|--------------------------------|
B|---- 6---------- 6------ 6-- 6--|---------------------------- 6--|
G|-------- 8-- 6-------------- 7--|---------------------------- 7--|
D|---------------------------- 6--|---- 6-- 6-- 6-- 6-- 8------ 6--|
A| 6------ 6------ 6------ 6------|--------------------------------|
E|--------------------------------| 6------ 6------ 6------ 6------|
http://classicalguitartablature.blogspot.com/
E|--------------------------------|--------------------------------|
B|---- 6---------- 6------ 6------|--------------------------------|
G|---- 7-- 8-- 7-- 7----------10--|--------------------------------|
D|---- 6---------- 6----------10--|----10--12--10------10--12--10--|
A|--------------------------------| 8------ 8------ 8------ 8------|
E| 6------ 6------ 6------ 6------|--------------------------------|
http://classicalguitartablature.blogspot.com/
E|--------------------------------|--------------------------------|
B|--------------------------------|--------------------------------|
G|---------------- 8-- 6------ 3--|--------------------------------|
D|---- 8--10-- 8---------- 8-- 3--|---- 3------ 3------ 3------ 3--|
A| 6------ 6------ 6------ 6------| 1------------------------------|
E|--------------------------------|------ 3-------- 1------ 3------|
http://classicalguitartablature.blogspot.com/
E|--------------------------------|--------------------------------|
B|--------------------------------|--------------------------------|
G|------------ 3------------------|--------------------------------|
D| 3---------- 3------------------|--------------------------------|
A| 1---------- 1------------------|--------------------------------|
E|--------------------------------|--------------------------------|
http://classicalguitartablature.blogspot.com/
0 com

Sunday Morning (BASIC)

Maroon 5's tune fingerstyle chord melody guitar BASIC arrangement played in the key of C.

Sunday Morning-Maroon 5-BASIC Arrangement played in the key of C.
http://classicalguitartablature.blogspot.com/
E|--------------------------------|--------------------------------|
B|-- 5-- 5-- 5------ 5------ 5----|-- 5---------- 5-- 5-- 5--------|
G|-- 5-- 5-- 5------ 4------ 4----|-- 4---------------- 4 4--------|
D|-- 3-- 3-- 3------ 3------ 3----|-- 5-- 5---------- 5-- 5--------|
A| 5-------- 5--------------------| 3---------------- 3---- 3---- 5|
E|-------------- 4---------- 3----|--------------------------------|
http://classicalguitartablature.blogspot.com/
E|--------------------------------|--------------------------------|
B|-- 5-- 5-- 5------ 5-- 5-- 5-- 5|-- 5-- 5 5---- 5----------------|
G|-- 5-- 5-- 5------ 4-- 4-- 4-- 4|-- 4-- 4 4---- 4----------------|
D|-- 3------ 3------ 3-- 3-- 3-- 3|-- 5---- 5---- 5----------------|
A|---------- 5--------------------| 3-------- 3 3 3-------------- 4|
E|-------------- 4 3-------- 3----|--------------------------------|
http://classicalguitartablature.blogspot.com/
http://classicalguitartablature.blogspot.com/
E|-------- 3---- 3------ 3--------|--------------------------------|
B|-- 5---- 5 5-- 3-- 5-- 3-- 5-- 3|-- 1---- 1---- 1-- 1-- 1--------|
G|-- 5---- 5 5-- 4-- 4-- 4-- 4-- 0|-- 0---- 0---- 0-- 0-- 0--------|
D|-- 3------ 3------ 3------ 3-- 2|-- 2---------- 2-- 2-- 2--------|
A| 5------------------------------| 3------------------ 3---- 3-- 4|
E|---------------- 3--------------|--------------------------------|
http://classicalguitartablature.blogspot.com/
E|------ 3------ 3----------------|--------------------------------|
B|-- 5-- 5-- 5-- 3-- 5---- 3---- 1|-------- 1---- 1-- 1---- 1------|
G|-- 5------ 5-- 4-- 4------ 5-- 0|-------- 0---- 0-- 0-- 0--------|
D|-- 3------ 3------ 3------------|-------- 2---- 2-- 2---- 2------|
A| 5------------------------------| 3------------------ 3---- 3-- 5|
E|---------------- 3--------------|--------------------------------|
http://classicalguitartablature.blogspot.com/
E|-------- 3---- 3------ 3--------|-------------- 0----------------|
B|------ 5 5 5-- 3-- 5-- 3-- 5-- 3|-- 1---- 1 3-- 1-- 3 1----------|
G|------ 5-- 5-- 4-- 4-- 4-- 4-- 0|-- 0---- 0 0-- 0-- 0-------- 2 0|
D|-- 3------ 3------ 3------ 3-- 2|-- 2-- 2-- 2------------ 2------|
A|--------------------------------| 3-------------- 3--------------|
E|---------------- 3--------------|--------------------------------|
http://classicalguitartablature.blogspot.com/
E|--------------------------------|-------------------------- 0-- 5|
B|---------- 5-- 3-- 1---- 1---- 1|---------------- 1------------ 8|
G|-- 5---- 7 5-- 2-- 2------ 2-- 0|------ 0-- 0---- 0------------ 5|
D| 7------------ 3-- 3------------|------ 2-------- 2--------------|
A| 5------------------------------| 3---------- 3-- 3--------------|
E|---------------- 3--------------|--------------------------------|
http://classicalguitartablature.blogspot.com/
E|-------------- 5-- 3-- 3------ 5|-- 3---- 3---- 5-------- 5---- 5|
B|-- 8---- 8 5-- 3-- 3---- 3 5-- 5|-- 5------ 5-------------- 5-- 8|
G|-- 5---- 5 5-- 4-- 4---- 4 4-- 4|-- 4-- 4------------ 4-------- 5|
D|-- 7---- 7---------------- 3----|--------------------------------|
A| 5------------------------------| 3-------------- 3--------------|
E|---------------- 3--------------|--------------------------------|
http://classicalguitartablature.blogspot.com/
E|-------------- 5-- 3-- 3------ 5|-- 3---- 3---- 5-------- 5------|
B|-- 8---- 8 5-- 3-- 3---- 3 5-- 5|-- 5------ 5-------------- 5-- 6|
G|-- 5---- 5 5-- 4-- 4---- 4 4-- 4|-- 4-- 4------------ 4-------- 5|
D|-- 7---- 7---------------- 3----|------------------------------ 3|
A| 5------------------------------| 3-------------- 3--------------|
E|---------------- 3--------------|--------------------------------|
http://classicalguitartablature.blogspot.com/
E|--------------------------------|---------------------- 0-- 3----|
B|-- 5-- 3---- 3------ 5-- 3---- 1|-------- 1-- 1-- 1---- 1------ 6|
G|-- 5------ 5 4------ 4---- 5-- 0|-------- 0-- 0-- 0------------ 5|
D|-- 3-------- 3------ 3-------- 2|-------- 2-- 2-- 2------------ 3|
A| 5------------------------------| 3---------------- 3------------|
E|---------------- 3--------------|--------------------------------|
http://classicalguitartablature.blogspot.com/
E|--------------------------------|-------------------- 0-- 0-- 1--|
B|-- 5-- 3---- 3------ 5-- 3---- 1|-------------------- 1-- 1-- 1--|
G|-- 5------ 5 4------ 4---- 5-- 0|--------------------------------|
D|-- 3-------- 3------ 3-------- 2|--------------------------------|
A| 5------------------------------| 3-- 3-- 3-- 3-- 3--------------|
E|---------------- 3--------------|--------------------------------|
http://classicalguitartablature.blogspot.com/
E| 3------------------------------|-------------- 0-------- 0 1-- 3|
B| 6---- 6-- 6-- 5------ 5-- 5-- 1|------ 1-- 1-- 1---- 3-- 1 1-- 6|
G| 5---- 5-- 5-- 4------ 4-- 4-- 0|------ 0-- 0-- 0---- 0-- 0---- 5|
D|------ 3-- 3-- 3---------- 3-- 2|------ 2-- 2-------- 2----------|
A| 5------------------------------| 3-------- 3--------------------|
E|---------------- 3-------- 3----|--------------------------------|
http://classicalguitartablature.blogspot.com/
E|------ 3-- 3--------------------|---------------- 0---- 0-- 1-- 3|
B|------ 6-- 6-- 5------ 5-- 5-- 1|------ 1-- 1---- 1 3-- 1-- 0-- 6|
G|------ 5-- 5 4-------- 4-- 4-- 0|------ 0-- 0---- 0 3-- 0------ 5|
D|-------------- 3------ 3-- 3-- 2|------ 2-- 2------ 2------------|
A| 5-------- 5--------------------| 3---------- 3------------------|
E|---------------- 3-------- 3----|--------------------------------|
http://classicalguitartablature.blogspot.com/
E|------ 3-- 3--------------------|-------- 0----------------------|
B|------ 6-- 6-- 5------ 5-- 5-- 1|-------- 1 3-- 3-- 1------------|
G|------ 5-- 5 4-------- 4-- 4-- 0|-------- 0 0-- 0-- 0---- 2 0----|
D|-------------- 3------ 3-- 3-- 2|---------- 2-- 2-- 2---------- 7|
A| 5-------- 5--------------------| 3-------------- 3--------------|
E|---------------- 3-------- 3----|--------------------------------|
http://classicalguitartablature.blogspot.com/
E|---------------- 3--------------|--------------------------------|
B|------------ 8-- 5 5-- 3------ 1|------------ 5---------------- 5|
G|-- 5---- 5------ 4 4------ 5-- 0|------------ 5---------------- 5|
D|------ 7---------- 3---------- 2|------------ 5---------------- 5|
A| 5------------------------------| 3-------- 5 7------------------|
E|---------------- 3--------------|-------------------------- 7 6 5|
http://classicalguitartablature.blogspot.com/
E|--------------------------------|--------------------------------|
B|--------------------------------|------------------------------ 1|
G|------------------------------ 2|---------- 2-- 4-------------- 0|
D|--------------------------------|---------- 3-- 5-------------- 2|
A|---------- 2 3---- 2 3---- 2----|-------------------------- 3-- 3|
E|-------------- 3------ 2------ 1|---------- 1-- 3---- 3 3 5-- 5--|
http://classicalguitartablature.blogspot.com/
E|--------------------------------|--------------------------------|
B|------------ 5---------------- 5|--------------------------------|
G|-------------- 5-------------- 5|--------------------------------|
D|-------------- 5-------------- 5|--------------------------------|
A|---------- 5 6 7----------------|---------- 2-- 3---- 2-- 3---- 2|
E|-------------------------- 7 6 5|---------------- 3-------- 2----|
http://classicalguitartablature.blogspot.com/
E|--------------------------------|--------------------------------|
B|------------------ 1-- 2-- 3----|-------- 3------------ 1--------|
G|------------------ 2-- 3-- 4----|-------- 4---------- 0----------|
D|------------------ 3-- 4-- 5----|-------- 5---------- 2----------|
A|-- 3----------------------------|-------------------- 3----------|
E|------ 1---------- 1-- 2-- 3----|-------- 3----------------------|
http://classicalguitartablature.blogspot.com/