To celebrate the anniversary, I am giving you (finally...) : iPhone LickByNeck !!!!!!
0 com

End Of The World (BASIC)

Carpenters' tune fingerstyle chord melody guitar BASIC arrangement played in the key of G. End Of The World - Carpenters - BASIC ARRANGEMENT played in the key of G
http://classicalguitartablature.blogspot.com/
E| 0------------------------------|--------------------------------|
B| 1-- 1--------------------------|-------- 1----------------------|
G|---- 2-- 2-- 0---------- 2------| 0------ 0------ 0--------------|
D|---- 2-- 2------ 4-- 4------ 4--|---- 0------ 2-- 0--------------|
A| 0-------------- 5--------------|--------------------------------|
E|--------------------------------| 3------------------------------|
http://classicalguitartablature.blogspot.com/
E|---------------------------- 0--|--------------------------------|
B| 0-------- 0------------ 0------| 3------------ 3----------------|
G| 0------ 0-- 2-- 0--------------|---- 2------ 2---- 2------ 2----|
D|---- 0-------------- 0-------- 0|-------- 0-------------- 0------|
A|--------------------------------|--------------------------------|
E| 3---------------------------- 2|--------------------------------|
http://classicalguitartablature.blogspot.com/
http://classicalguitartablature.blogspot.com/
E|--------------------------------|--------------------------------|
B|---------------------------- 1--| 0------------------------------|
G| 0-------- 0---------- 0--------|-------- 2------------------ 2--|
D|---- 0-- 2-- 4-- 2--------------|---- 0------ 0---------- 0------|
A|--------------------------------| 2------------------ 2----------|
E| 0------------------ 0----------|--------------------------------|
http://classicalguitartablature.blogspot.com/
E|------ 0-------- 0---------- 0 2|--------------------------------|
B|------ 3-- 3-------------- 3-- 3|---------- 3---- 3---------- 0--|
G| 2---------- 2---------- 2---- 4|-------- 4-- 4-- 2------ 1------|
D|---- 2-------------- 2----------|---- 4-------------- 0-- 0------|
A| 0---------------------------- 2|--------------------------------|
E|--------------------------------|---------------- 0--------------|
http://classicalguitartablature.blogspot.com/
E| 0------------------------------|--------------------------------|
B| 1------ 3------ 1-- 0------ 0--|---------------------------- 5--|
G| 0------ 0---- 0---------- 2-- 5|-------- 5------------ 5--------|
D|---- 2------ 0 2---------- 2----|---- 7------ 7-- 5-- 5----------|
A| 0------ 2---- 3------ 4------ 6|---------------- 5--------------|
E|--------------------------------|--------------------------------|
http://classicalguitartablature.blogspot.com/
E|---------------------------- 0--|--------------------------------|
B| 0-------- 0------------ 0------| 3------------ 3----------------|
G| 0------ 0-- 2-- 0--------------|---- 2------ 2---- 2------ 2----|
D|---- 0-------------- 0-------- 0|-------- 0-------------- 0------|
A|--------------------------------|--------------------------------|
E| 3---------------------------- 2|--------------------------------|
http://classicalguitartablature.blogspot.com/
E|--------------------------------|--------------------------------|
B|---------------------------- 1--| 0------------------------------|
G| 0-------- 0---------- 0--------|-------- 2------------------ 2--|
D|---- 0-- 2-- 4-- 2--------------|---- 0------ 0---------- 0------|
A|--------------------------------| 2------------------ 2----------|
E| 0------------------ 0----------|--------------------------------|
http://classicalguitartablature.blogspot.com/
E|------ 0-------- 0---------- 0 2|--------------------------------|
B|------ 3-- 3-------------- 3-- 3|---------- 3---- 3---------- 0--|
G| 2---------- 2---------- 2---- 4|-------- 4-- 4-- 2------ 1------|
D|---- 2-------------- 2----------|---- 4-------------- 0-- 0------|
A| 0---------------------------- 2|--------------------------------|
E|--------------------------------|---------------- 0--------------|
http://classicalguitartablature.blogspot.com/
E| 0------------------------------|--------------------------------|
B| 1-- 1--------------------------|-------- 1---- 0----------------|
G| 2-------- 2 0------ 0-- 2------| 0------ 0---- 0------------ 0--|
D|-------- 2------ 4--------------|---- 0-- 2-- 2------ 0----------|
A| 0-------------- 5--------------|------------------------ 2------|
E|--------------------------------| 3------------------------------|
http://classicalguitartablature.blogspot.com/
E|---------------------- 0-- 0----|--------------------------------|
B|-------------- 1-- 1-- 1-- 1----| 3-- 0-------------------- 0-- 1|
G|-------- 0 0-- 0-- 0------------| 0---------- 0-------- 0------ 0|
D| 2-- 2-------- 2-- 2------------| 0------ 0---- 0-- 0------------|
A| 3------------ 0----------------|--------------------------------|
E|------------------------------ 3|---------------- 3--------------|
http://classicalguitartablature.blogspot.com/
E|---------------------------- 0--|------------------------------ 2|
B|---------- 1------------ 3------| 3------------------------ 3-- 3|
G|------ 0-------- 5-- 5----------| 0------ 0---- 0------ 0------ 2|
D|-- 2------------ 4--------------|---- 0---- 0------ 0------------|
A| 0-------------- 5--------------|------------------------------ 2|
E|--------------------------------| 3-------------- 3--------------|
http://classicalguitartablature.blogspot.com/
E|--------------------------------| 2------------------------------|
B|---------- 3 0 3-------- 0-- 3--| 3-------- 3 0-- 3------ 0------|
G|------ 2-- 2 2-- 2------ 2-- 2--|-------- 2 2 2-- 2------ 1------|
D|---- 0---- 0 0-- 0-- 0----------|---- 0-------------- 0------ 0--|
A|--------------------------------|--------------------------------|
E|--------------------------------| 0------------------------------|
http://classicalguitartablature.blogspot.com/
E| 0------------------------------|--------------------------------|
B| 1------ 3------ 1-- 0------ 0--|---------------------------- 5--|
G| 0------ 0------ 0-- 0---- 2-- 5|-------- 5-------------- 5------|
D|---- 2------ 0 2---- 2---- 2----|---- 7------ 7 5---- 5----------|
A| 0------ 2---- 3------ 4--------| 6-------------- 5--------------|
E|--------------------------------|--------------------------------|
http://classicalguitartablature.blogspot.com/
E|---------------------------- 0--|--------------------------------|
B| 0-------- 0------------ 0------| 3------------ 3----------------|
G| 0------ 0-- 2-- 0--------------|---- 2------ 2---- 2------ 2----|
D|---- 0-------------- 0-------- 0|-------- 0-------------- 0------|
A|--------------------------------|--------------------------------|
E| 3---------------------------- 2|--------------------------------|
http://classicalguitartablature.blogspot.com/
E|--------------------------------|--------------------------------|
B|---------------------------- 1--| 0------------------------------|
G| 0-------- 0---------- 0--------|-------- 2------------------ 2--|
D|---- 0-- 2-- 4-- 2--------------|---- 0------ 0---------- 0------|
A|--------------------------------| 2------------------ 2----------|
E| 0------------------ 0----------|--------------------------------|
http://classicalguitartablature.blogspot.com/
E|------ 0-------- 0---------- 0 2|--------------------------------|
B|------ 3-- 3-------------- 3-- 3|---------- 3---- 3---------- 0--|
G| 2---------- 2---------- 2---- 4|-------- 4-- 4-- 2------ 1------|
D|---- 2-------------- 2----------|---- 4-------------- 0-- 0------|
A| 0---------------------------- 2|--------------------------------|
E|--------------------------------|---------------- 0--------------|
http://classicalguitartablature.blogspot.com/
E| 0------------------------------|--------------------------------|
B| 1-- 1--------------------------|-------- 1---- 0----------------|
G| 2-------- 2 0------ 0-- 2------| 0------ 0---- 0------------ 0--|
D|-------- 2------ 4--------------|---- 0-- 2-- 2------ 0----------|
A| 0-------------- 5--------------|------------------------ 2------|
E|--------------------------------| 3------------------------------|
http://classicalguitartablature.blogspot.com/
E|--------------------------------|--------------------------------|
B|-------- 0-------- 1-------- 2--|------------------ 3------------|
G| 2------ 0-------- 0-------- 3--|------------------ 0------------|
D|---- 2-------- 0 2---- 2---- 4--|-- 4-------------- 0------------|
A| 3------ 2-------- 0------------|--------------------------------|
E|---------------------------- 4--|------------------ 3------------|
http://classicalguitartablature.blogspot.com/
0 com

The Longest Time (BASIC)

Billy Joel's tune fingerstyle chord melody guitar BASIC arrangement played in the key of G. The Longest Time - Billy Joel - BASIC ARRANGEMENT played in the key of G
http://classicalguitartablature.blogspot.com/
E| 3-------------- 2------ 3------| 0------------------------------|
B| 3-------------- 3------ 0------| 1-------------- 7-- 5 7-- 5----|
G| 0-------------- 2------ 0------| 0-------------- 5-- 5 5-- 5----|
D|---- 0------ 0------ 4------ 0--|---- 2------ 2-- 7-- 7-- 7 7----|
A|---------------- 5------ 2------| 3------ 3------ 5---- 5--------|
E| 3------ 3----------------------|--------------------------------|
http://classicalguitartablature.blogspot.com/
E|---------------- 2------ 3------| 0------------------------------|
B| 3-------------- 3------ 0------| 1-------------- 7-- 5 7-- 5----|
G| 0---------- 0-- 2------ 0------| 0-------------- 5-- 5 5-- 5-- 0|
D| 0-- 0------ 0------ 4------ 0--|---- 2------ 2-- 7-- 7-- 7 7----|
A|---------------- 5------ 2------| 3------ 3------ 5---- 5--------|
E| 3------ 3----------------------|------------------------------ 3|
http://classicalguitartablature.blogspot.com/
http://classicalguitartablature.blogspot.com/
E|---------------------- 2--------| 2-- 3 0------------------------|
B|------ 0------ 3------ 0--------| 1---- 1---- 3 3----------------|
G|------ 2------ 0------ 0--------| 0-- 0 0---- 0-- 5------------ 0|
D|---- 0---- 0------ 0-------- 0--|------------ 0------ 4------ 4--|
A|---------------------- 5--------| 3------ 3------ 5---- 5--------|
E|------ 2------ 0----------------|------------------------------ 3|
http://classicalguitartablature.blogspot.com/
E|---------------------- 2------ 2|---- 3--------------------------|
B|------ 0------ 3------ 0--------| 2-- 2-- 5-- 3 3------ 3--------|
G|------ 2------ 0------ 0--------| 2-- 2-- 2-- 2 5------ 5-- 5----|
D|---- 0---- 0------ 0-------- 0--|-------- 2-- 2------ 4---- 4----|
A|---------------------- 5--------| 4------ 0---- 5------ 5-- 3-- 2|
E|------ 2------ 0----------------|--------------------------------|
http://classicalguitartablature.blogspot.com/
E|-------------- 5------ 3--------|------ 2-- 5-- 8---- 7----------|
B|-- 0-- 4-- 7-- 0------ 0--------|-- 3---- 3 3-- 7---- 7-- 8-- 7--|
G|-- 2-- 4------ 0------ 0--------|-- 2-- 2------ 7---- 7-- 7-- 7--|
D|-- 1-- 4------------ 0---- 0----|-- 4-------------------- 9-- 9--|
A|-------- 6----------------------|----------------10--------------|
E|-------------- 0------ 0--------| 2------ 2-------------- 7------|
http://classicalguitartablature.blogspot.com/
E|-------- 0-- 3-- 7-- 8 5--------| 5-------------- 3--------------|
B|---- 1-- 0-- 0-- 5-- 5 5---- 8--| 5---------- 8-- 3--------------|
G|---- 0-- 0-- 0-- 5-- 5 5---- 5--| 5---------- 5-- 0------------ 0|
D|---- 2---------------------- 5--|---- 5------ 5------ 0------ 0--|
A| 3------ 2------ 0------ 0------| 5------ 5----------------------|
E|--------------------------------|---------------- 3------ 3---- 3|
http://classicalguitartablature.blogspot.com/
E|---------------------- 2--------| 2-- 3 0------------------------|
B|------ 0------ 3------ 0--------| 1---- 1---- 3 3----------------|
G|------ 2------ 0------ 0--------| 0-- 0 0---- 0-- 5------------ 0|
D|---- 0---- 0------ 0-------- 0--|------------ 0------ 4------ 4--|
A|---------------------- 5--------| 3------ 3------ 5---- 5--------|
E|------ 2------ 0----------------|------------------------------ 3|
http://classicalguitartablature.blogspot.com/
E|---------------------- 2------ 2|---- 3--------------------------|
B|------ 0------ 3------ 0--------| 2-- 2-- 5-- 3 3------ 3--------|
G|------ 2------ 0------ 0--------| 2-- 2-- 2-- 2 5------ 5-- 5----|
D|---- 0---- 0------ 0-------- 0--|-------- 2-- 2------ 4---- 4----|
A|---------------------- 5--------| 4------ 0---- 5------ 5-- 3-- 2|
E|------ 2------ 0----------------|--------------------------------|
http://classicalguitartablature.blogspot.com/
E|-------------- 5------ 3--------|------ 2-- 5-- 8---- 7----------|
B|-- 0-- 4-- 7-- 0------ 0--------|-- 3---- 3 3-- 7---- 7-- 8-- 7--|
G|-- 2-- 4------ 0------ 0--------|-- 2-- 2------ 7---- 7-- 7-- 7--|
D|-- 1-- 4------------ 0---- 0----|-- 4-------------------- 9-- 9--|
A|-------- 6----------------------|----------------10--------------|
E|-------------- 0------ 0--------| 2------ 2-------------- 7------|
http://classicalguitartablature.blogspot.com/
E|-------- 0-- 3-- 7-- 8 5--------| 5-------------- 3--------------|
B|---- 1-- 0-- 0-- 5-- 5 5---- 8--| 5---------- 8-- 3--------------|
G|---- 0-- 0-- 0-- 5-- 5 5---- 5--| 5---------- 5-- 0--------------|
D|---- 2---------------------- 5--|---- 5------ 5------ 0------ 0--|
A| 3------ 2------ 0------ 0------| 5------ 5----------------------|
E|--------------------------------|---------------- 3------ 3------|
http://classicalguitartablature.blogspot.com/
E| 2---- 2------ 2------ 2------ 2|------ 0------ 0----------------|
B| 3---- 3---- 3-- 3---- 3------ 0|---------- 3-- 0----------------|
G| 2---------------------------- 0|---- 0---------------- 0-- 2----|
D|-- 4------ 4------ 4------ 4----|-- 0-------------- 0------------|
A| 5-------------- 5--------------|--------------------------------|
E|------------------------------ 0|-------------- 0----------------|
http://classicalguitartablature.blogspot.com/
E| 2------------------------------| 0------------------------------|
B| 2------ 5 3-- 5------------ 5--| 0------ 3 2---- 0------ 0------|
G| 3-- 3-------- 3------ 3--------| 0-- 0---------- 0---------- 2--|
D|-- 2-------------- 2------------|---- 0-------------- 0----------|
A|--------------------------------|--------------------------------|
E| 2-------------- 2--------------| 3-------------- 3--------------|
http://classicalguitartablature.blogspot.com/
E| 2------ 2------ 2------ 2---- 2|------ 0------ 0----------------|
B| 3-------------- 3------------ 0|---------- 3-- 0----------------|
G| 2---- 2------------ 2-------- 0|---- 0---------------- 0-- 2----|
D|---- 4------ 4------ 4------ 4--|-- 0-------------- 0------------|
A| 2-------------- 2--------------|--------------------------------|
E|------------------------------ 0|-------------- 0----------------|
http://classicalguitartablature.blogspot.com/
E| 2------ 0---- 0-------------- 0|--------------------------------|
B| 2-- 2---- 3-- 2------ 2--------|------ 3------ 0----------------|
G| 0-- 0---------------------- 2--| 5-- 5---- 5-- 5-------- 2---- 0|
D|------------------ 2------------|-- 4-------------- 4-------- 4--|
A| 0------------ 0----------------| 5------------ 5----------------|
E|--------------------------------|------------------------------ 3|
http://classicalguitartablature.blogspot.com/
E|---------------------- 2--------| 2-- 3 0------------------------|
B|------ 0------ 3------ 0--------| 1---- 1---- 3 3----------------|
G|------ 2------ 0------ 0--------| 0-- 0 0---- 0-- 5------------ 0|
D|---- 0---- 0------ 0-------- 0--|------------ 0------ 4------ 4--|
A|---------------------- 5--------| 3------ 3------ 5---- 5--------|
E|------ 2------ 0----------------|------------------------------ 3|
http://classicalguitartablature.blogspot.com/
E|---------------------- 2------ 2|---- 3--------------------------|
B|------ 0------ 3------ 0--------| 2-- 2-- 5-- 3 3------ 3--------|
G|------ 2------ 0------ 0--------| 2-- 2-- 2-- 2 5------ 5-- 5----|
D|---- 0---- 0------ 0-------- 0--|-------- 2-- 2------ 4---- 4----|
A|---------------------- 5--------| 4------ 0---- 5------ 5-- 3-- 2|
E|------ 2------ 0----------------|--------------------------------|
http://classicalguitartablature.blogspot.com/
E|-------------- 5------ 3--------|------ 2-- 5-- 8---- 7----------|
B|-- 0-- 4-- 7-- 0------ 0--------|-- 3---- 3 3-- 7---- 7-- 8-- 7--|
G|-- 2-- 4------ 0------ 0--------|-- 2-- 2------ 7---- 7-- 7-- 7--|
D|-- 1-- 4------------ 0---- 0----|-- 4-------------------- 9-- 9--|
A|-------- 6----------------------|----------------10--------------|
E|-------------- 0------ 0--------| 2------ 2-------------- 7------|
http://classicalguitartablature.blogspot.com/
E|-------- 0-- 3-- 7-- 8 5--------| 5-------------- 3--------------|
B|---- 1-- 0-- 0-- 5-- 5 5---- 8--| 5---------- 8-- 3--------------|
G|---- 0-- 0-- 0-- 5-- 5 5---- 5--| 5---------- 5-- 0--------------|
D|---- 2---------------------- 5--|---- 5------ 5------ 0------ 0--|
A| 3------ 2------ 0------ 0------| 5------ 5----------------------|
E|--------------------------------|---------------- 3------ 3------|
http://classicalguitartablature.blogspot.com/
E| 3-------------- 2------ 3------| 0------------------------------|
B| 3-------------- 3------ 0------| 1-------------- 7-- 5 7-- 5----|
G| 0-------------- 2------ 0------| 0-------------- 5-- 5 5-- 5----|
D|---- 0------ 0------ 4------ 0--|---- 2------ 2-- 7-- 7-- 7 7----|
A|---------------- 5------ 2------| 3------ 3------ 5---- 5--------|
E| 3------ 3----------------------|--------------------------------|
http://classicalguitartablature.blogspot.com/
E|---------------- 2------ 3------| 0------------------------------|
B| 3-------------- 3------ 0------| 1-------------- 7-- 5 7-- 5----|
G| 0---------- 0-- 2------ 0------| 0-------------- 5-- 5 5-- 5----|
D| 0-- 0------ 0------ 4------ 0--|---- 2------ 2-- 7-- 7-- 7 7----|
A|---------------- 5------ 2------| 3------ 3------ 5---- 5--------|
E| 3------ 3----------------------|------------------------------ 3|
http://classicalguitartablature.blogspot.com/
E|--------------------------------|--------------------------------|
B| 3------------------------------|--------------------------------|
G| 2------------------------------|--------------------------------|
D| 0------------------------------|--------------------------------|
A|--------------------------------|--------------------------------|
E|--------------------------------|--------------------------------|
http://classicalguitartablature.blogspot.com/
0 com

Time After Time

Cyndi Lauper's hit fingerstyle solo guitar arrangement played in the key of C. Time After Time played in the key of C.
http://classicalguitartablature.blogspot.com/
E|------------ 8---------- 7------|------------------------ 3------|
B|------------------------ 6------|------------10---------- 3------|
G|--------10----------10------ 5--|------ 4------------ 7-- 4------|
D|----10----------10--------------|---- 5---------- 9---------- 5--|
A| 8------------------------------|------------ 8---------- 5------|
E|------------ 8---------- 5------| 3------------------------------|
http://classicalguitartablature.blogspot.com/
E|------------ 5------ 3 1--------|--------------------------------|
B|------------ 5------ 3 1---- 5 5|-- 6-- 5---------------- 3------|
G| 7---------- 4------ 2 2---- 4 5|-- 5-- 5-- 5-------- 5-- 2------|
D|---- 5---------------------- 5 7|---- 6 3-- 3---- 3---------- 3--|
A|---------------------------- 5--|--------------------------------|
E| 7------ 5------ 3-- 1-- 0------| 8-- 6-- 5-- 4---------- 3------|
http://classicalguitartablature.blogspot.com/
http://classicalguitartablature.blogspot.com/
E|------------------------ 0------|--------------------------------|
B| 3-------- 1--------------------| 3---------- 1-------- 1------ 3|
G| 2---- 2-- 0-------- 0----------| 5------ 5-- 0---- 0-- 0------ 2|
D|-- 3------------ 2--------------|---- 3-------- 2----------------|
A| 3-------- 3--------------------| 5-------- 3--------------------|
E|--------------------------------|------------ 0---------------- 1|
http://classicalguitartablature.blogspot.com/
E|--------------------------------|---------- 0--------------------|
B|---------- 1---------- 1------ 3|---- 5---- 1-------------- 1-- 3|
G|------ 2---- 0---- 0-- 0------ 5|---- 7---- 0---------- 0------ 5|
D|---- 0------ 2-- 2-------- 2-- 3|---- 5------------ 2------------|
A|--------------------------------|-------------- 3-------------- 5|
E|------------ 3---------------- 5|---- 7--------------------------|
http://classicalguitartablature.blogspot.com/
E|------------------------ 0------|--------------------------------|
B|---------- 1--------------------| 3---------- 1-------- 1--------|
G|------ 5---- 0------ 0----------| 5------ 5-- 0---- 0------------|
D|-- 3------------ 2---------- 2--|---- 3---------- 2---------- 2--|
A|------------ 3------------------|--------------------------------|
E|--------------------------------| 5---------- 3------------------|
http://classicalguitartablature.blogspot.com/
E|--------------------------------|------------ 0------------------|
B| 3---------- 1---------- 1------| 3-- 5------ 1-------------- 3--|
G| 2------ 2---------- 0-- 0------| 5-- 4------ 0------------------|
D|---- 0------ 2-- 2---------- 2--| 3-- 3-------------- 2----------|
A|--------------------------------| 5-- 4---------- 3------ 2------|
E| 1---------- 0------------------|--------------------------------|
http://classicalguitartablature.blogspot.com/
E|--------------------------------|--------------------------------|
B|------------ 3------------------| 0---------- 1------------------|
G| 5---------- 0------ 0----------| 0------ 4-- 2------ 2----------|
D|---- 3---------- 0---------- 0--|---- 0-- 5------ 3---------- 0--|
A|--------------------------------|-------- 5-- 3---------- 2------|
E| 5------ 4-- 3---------- 1------| 0------------------------------|
http://classicalguitartablature.blogspot.com/
E|--------------------------------|--------------------------------|
B|---------------- 1---- 0 0------|---------------------- 3--------|
G|-------- 5------ 0------ 0------| 0-------------- 4------ 5------|
D|---- 3------ 3------ 0------ 0--|---- 0------ 2------ 2------ 3--|
A|--------------------------------|--------------------------------|
E| 5------ 4------ 3------ 1------| 0------ 1------ 3------ 4------|
http://classicalguitartablature.blogspot.com/
E|--------------------------------|--------------------------------|
B|------------ 3------------------|--------------------------------|
G| 5---------- 4------ 4------ 7--| 4------ 4-- 5------ 5----------|
D| 7-------------- 5---------- 9--|---- 2-- 3-- 3-- 3---------- 3--|
A|------------ 5------------ 8----|--------------------------------|
E| 5-- 7-- 8----------------------| 3------ 4-- 5---------- 3------|
http://classicalguitartablature.blogspot.com/
E|--------------------------------|------------------------ 0------|
B|-------- 1------ 1--------------| 3-------- 1--------------------|
G| 2------ 1------ 0---- 5--------| 2---- 2-- 0-------- 0----------|
D|---- 2 0---- 0------ 0-- 3------|-- 3------------ 2--------------|
A|------------------------ 5-- 4--| 3-------- 3--------------------|
E| 2------ 1------ 0--------------|--------------------------------|
http://classicalguitartablature.blogspot.com/
E|--------------------------------|--------------------------------|
B| 3---------- 1-------- 1------ 3|---------- 1---------- 1------ 3|
G| 5------ 5-- 0---- 0-- 0------ 2|------ 2---- 0---- 0-- 0------ 5|
D|---- 3-------- 2----------------|---- 0------ 2-- 2-------- 2-- 3|
A| 5-------- 3--------------------|--------------------------------|
E|------------ 0---------------- 1|------------ 3---------------- 5|
http://classicalguitartablature.blogspot.com/
E|---------- 0--------------------|------------------------ 0------|
B|---- 5---- 1-------------- 1-- 3|---------- 1--------------------|
G|---- 7---- 0---------- 0------ 5|------ 5---- 0------ 0----------|
D|---- 5------------ 2------------|-- 3------------ 2---------- 2--|
A|-------------- 3-------------- 5|------------ 3------------------|
E|---- 7--------------------------|--------------------------------|
http://classicalguitartablature.blogspot.com/
E|--------------------------------|--------------------------------|
B| 3---------- 1-------- 1--------| 3---------- 1---------- 1------|
G| 5------ 5-- 0---- 0------------| 2------ 2---------- 0-- 0------|
D|---- 3---------- 2---------- 2--|---- 0------ 2-- 2---------- 2--|
A|--------------------------------|--------------------------------|
E| 5---------- 3------------------| 1---------- 0------------------|
http://classicalguitartablature.blogspot.com/
E|------------ 0------------------|--------------------------------|
B| 3-- 5------ 1-------------- 3--|------------ 3------------------|
G| 5-- 4------ 0------------------| 5---------- 0------ 0----------|
D| 3-- 3-------------- 2----------|---- 3---------- 0---------- 0--|
A| 5-- 4---------- 3------ 2------|--------------------------------|
E|--------------------------------| 5------ 4-- 3---------- 1------|
http://classicalguitartablature.blogspot.com/
E|--------------------------------|--------------------------------|
B| 0---------- 1------------------|---------------- 1---- 0 0------|
G| 0------ 4-- 2------ 2----------|-------- 5------ 0------ 0------|
D|---- 0-- 5------ 3---------- 0--|---- 3------ 3------ 0------ 0--|
A|-------- 5-- 3---------- 2------|--------------------------------|
E| 0------------------------------| 5------ 4------ 3------ 1------|
http://classicalguitartablature.blogspot.com/
E|--------------------------------|--------------------------------|
B|---------------------- 3--------|-------- 1------ 1------ 0------|
G| 0-------------- 4------ 5---- 5|-------- 2------ 1------ 0------|
D|---- 0------ 2------ 2------ 3--|---- 3-- 2-- 2------ 0------ 0 5|
A|--------------------------------|------------------------------ 5|
E| 0------ 1------ 3------ 4---- 5|-------- 2------ 1------ 0------|
http://classicalguitartablature.blogspot.com/
E|---------------------- 3---- 3--|--------------------------------|
B|------------------ 8-- 6---- 3--|-- 3-- 8---- 8-------- 8------ 8|
G|---- 2------ 2---- 7---- 5-- 4--|-- 4-- 7---- 7------ 7-- 7---- 9|
D|---- 2------ 3---- 5------------|---- 5 5---- 5------ 5-- 9-- 9 7|
A|---- 3 2------------------------|--------------------------------|
E|---------------- 6------ 4---- 3|------ 5---- 7-- 7------10---- 8|
http://classicalguitartablature.blogspot.com/
E|--------------------------------|------ 0------------------------|
B|----10------ 5---------------- 1|------ 1-------- 5------ 3---- 1|
G|---- 7------ 5-------------- 5 2|---------------- 5------ 4------|
D|---- 9 9---- 5------ 5------ 5--|---- 3---- 2-------- 3------ 3--|
A|--------------------------------|---------------- 5------ 4------|
E|---- 7---------- 5---- 3------ 1|-------- 0----------------------|
http://classicalguitartablature.blogspot.com/
E| 0---------------- 3---- 3-- 3--|------ 3---- 3------------------|
B|------------------ 1---- 6-- 3--|-- 3-- 0---- 3------ 3 8------ 8|
G|------------ 0---- 0---- 5-- 4--|-- 4-- 0---- 4------ 4 7------ 5|
D|---- 2-------- 2----------------|-- 5---------------- 5------ 5 5|
A| 3------ 2------ 0--------------|---------------- 5--------------|
E|------------------------ 4------| 3---- 1-------------- 7------ 5|
http://classicalguitartablature.blogspot.com/
E|-- 5----------------------------|-------- 0----------------------|
B|-- 8------ 5--------------------|-------- 1------ 5------ 3---- 5|
G|-- 5------ 4-------- 5------ 2--|---- 2-- 2-- 2-- 5------ 4---- 5|
D|---------- 3-------- 5------ 2--|---- 2------ 2------ 5-- 3-- 3--|
A|--------------------------------|--------------------------------|
E|------ 4-------- 3------ 2------| 1------ 2------ 3------ 4---- 5|
http://classicalguitartablature.blogspot.com/
E|-------------------------- 3----|---------- 3---------- 3--------|
B|------------------ 8-- 8-- 3----|-- 3-- 8-- 3------ 3-- 6------ 8|
G|---------- 7------ 9--10-- 4----|-- 4-- 7-- 4------ 4-- 5------ 5|
D|---- 5---- 5------ 7-- 8--------|-- 5-- 9---------- 5------ 3-- 5|
A|------------------------------ 5|------ 8------------------------|
E|------ 7------ 8------ 9--------|-------------- 3------ 4--------|
http://classicalguitartablature.blogspot.com/
E|---- 5--------------------------|--------------------------------|
B|---- 8------ 5------------------|------ 5------ 5-------------- 5|
G|------------ 7-- 9---- 9------ 5|------ 5------ 5------ 7------ 5|
D|------------ 5------ 7------ 8--|---- 3 5---- 5---- 7-------- 7--|
A|------------------------------ 5|-------- 7---- 8-------- 9------|
E| 5------ 7------ 8------ 9------|------------------------------ 3|
http://classicalguitartablature.blogspot.com/
E|--------------------------------|---------------------------- 8--|
B|-------------------- 8-- 8-- 8--|-------- 8-- 8-------- 8---- 5--|
G|------------ 5------ 5-- 7-- 7--|---- 7-- 8-- 7------ 7 7---- 5--|
D|---- 5------ 3------ 5-- 6-- 7--|---- 7-- 7-- 6------ 6 6--------|
A|--------------------------------|-------- 8---- 7----------------|
E|-------- 4---- 5-------- 6------| 7---------------------- 6-- 5--|
http://classicalguitartablature.blogspot.com/
E|---- 7------------------ 5------|--------------------------------|
B|---- 8------10--13------ 5------|------ 1-------- 1--------------|
G|---- 7------ 9--12------ 5------|---- 2-- 2------ 2---- 4------ 5|
D|------------ 7--10--------------|---- 2------ 2---- 3-- 3-- 3-- 5|
A|-------------------- 7----------|--------------------------------|
E|---- 7-- 8------10--------------| 1------ 2------ 3------ 4------|
http://classicalguitartablature.blogspot.com/
E|--------------------------------|--------------------------------|
B|------ 5---- 3------ 1----------|------ 1------------------------|
G|------ 4---- 3------ 3---- 3----|-- 2-- 0------ 5-------- 4------|
D|------ 3---- 3------ 2---- 2----|-- 2-- 2-- 2-------- 3------ 3--|
A|--------------------------------|-------------- 5-------- 4------|
E| 5---- 4------ 3------ 2------ 1|------ 0------------------------|
http://classicalguitartablature.blogspot.com/
E|-------- 0----------------------|--------------------------------|
B| 1---------- 3---- 1------------|------ 1---------------- 0------|
G| 0---------- 0------ 0----------|---- 2 0------ 5-------- 0------|
D|---- 2------------ 2-------- 2--|---- 3---- 0-------- 3-- 0-- 0--|
A| 3------ 2------ 0--------------|------------------------ 2------|
E|------------------------ 3------| 1------ 3---- 5----------------|
http://classicalguitartablature.blogspot.com/
E|--------------------------------|--------------------------------|
B| 1---------- 1 3---------- 3-- 4|---------- 4-- 6---------- 6-- 5|
G| 2------ 2------ 4---- 4--------| 5---- 5------ 7------ 7--------|
D|---- 3-------- 5---- 5-------- 6|-- 6---------- 8-- 8------------|
A| 3-------------- 5--------------| 6------------ 8----------------|
E|--------------------------------|--------------------------------|
http://classicalguitartablature.blogspot.com/
E|--------------------------------|--------------------------------|
B|--------------------------------|--------------------------------|
G| 5------------------------------|--------------------------------|
D| 5------------------------------|--------------------------------|
A| 7------------------------------|--------------------------------|
E|--------------------------------|--------------------------------|
http://classicalguitartablature.blogspot.com/