To celebrate the anniversary, I am giving you (finally...) : iPhone LickByNeck !!!!!!
0 com

Carrie (BASIC)

Europe's tune fingerstyle chord melody guitar BASIC arrangement played in the key of Em.

Carrie-Europe-BASIC ARRANGEMENT played in the key of Em.
http://classicalguitartablature.blogspot.com/
E|-------------------- 3-- 2------|-------- 0-- 2-- 3-- 3 2--------|
B|---------- 3---------------- 3--| 0------------------------ 0----|
G|------ 0------------------------|-- 0----------------------------|
D|-- 4----------------------------|---- 2--------------------------|
A|--------------------------------|------------------------------ 5|
E| 0------------------------------| 0------------------------------|
http://classicalguitartablature.blogspot.com/
E|-------- 0------ 0-- 0------ 0--| 0------ 3-------------- 3------|
B| 3------ 3-------- 3-- 3-- 3----| 1------ 1------ 3------ 3------|
G|-------- 0-------- 0------ 0----| 0-------------- 0--------------|
D|---- 4 2---- 2------------------|---- 2------ 2------ 0------ 0--|
A|-------- 3-------------- 2------| 0-------------- 2--------------|
E|--------------------------------|--------------------------------|
http://classicalguitartablature.blogspot.com/
http://classicalguitartablature.blogspot.com/
E| 0------ 3------ 2--------------|--------------------------------|
B| 1------ 1-------- 3------ 3----| 3-- 1-- 1-- 0-- 0---------- 3--|
G| 0------------------ 2----------| 0-- 0-- 0-- 0-- 0-- 0-- 0------|
D|---- 2------ 2-------- 4 2 4----|---- 2-- 2-- 2-- 2---- 0------ 2|
A| 3-------------- 5--------------| 0------------ 0-------- 2---- 3|
E|--------------------------------|--------------------------------|
http://classicalguitartablature.blogspot.com/
E|--------------------------------|------ 3------------ 3-- 2------|
B| 3-- 1 1---- 0-- 0--------------|-- 0-- 3-------- 3------ 3 3-- 0|
G| 0-- 0-- 0-- 0-- 2-- 0-- 0 2----| 2-- 0---- 0------------ 2------|
D|---- 2 2---- 2-- 4--------------| 0------------------------------|
A|---------------- 5--------------|--------------------------------|
E|--------------------------------| 3-------------------- 2--------|
http://classicalguitartablature.blogspot.com/
E|-------------------- 3 2--------|------------------ 3-- 2--------|
B|------------ 0------ 0 0---- 0--| 3------ 1------------ 3---- 3--|
G|-------- 0----------------------|-------- 0---- 0------------ 0--|
D|---- 2-------- 2----------------|---- 4------ 2------------ 0----|
A|--------------------------------| 5------ 3-------------- 2------|
E| 0-------------- 0--------------|--------------------------------|
http://classicalguitartablature.blogspot.com/
E|-------------------- 3-- 2------| 0------------------ 3 2--------|
B| 1---------- 1------ 0------ 3--| 1------ 3-- 3------ 3 3---- 3 0|
G|-------- 0-------- 0------------|-------- 0----------------------|
D|---- 2-------- 2----------------|---- 2------------ 4------------|
A| 0-------------- 2--------------| 3-------------- 5--------------|
E|--------------------------------|--------------------------------|
http://classicalguitartablature.blogspot.com/
E|-------------------- 3 2--------|------------------ 3-- 2--------|
B|------------ 0------ 0 0---- 0--| 3------ 1------------ 3---- 3--|
G|-------- 0----------------------|-------- 0---- 0------------ 0--|
D|---- 2-------- 2----------------|---- 4------ 2------------ 0----|
A|--------------------------------| 5------ 3-------------- 2------|
E| 0-------------- 0--------------|--------------------------------|
http://classicalguitartablature.blogspot.com/
E|-------------------- 3-- 2------| 0------ 3------ 2-------- 0 2--|
B| 1---------- 1------ 0------ 3--| 1------ 1------ 3------ 3------|
G|-------- 0-------- 0------------|---------------- 2------ 2------|
D|---- 2-------- 2----------------|---- 2------ 2------ 4----------|
A| 0-------------- 2--------------| 3-------------- 5--------------|
E|--------------------------------|--------------------------------|
http://classicalguitartablature.blogspot.com/
E| 3-- 2 2-- 0-------------- 3-- 3|---- 2 2-- 0 0---------- 3------|
B| 1-- 1 1-- 0 3---------- 3------| 1-- 1 1-- 1 1-------------- 1--|
G| 0-- 0 0-------------- 0--------| 0-- 0 0-- 0 0------------------|
D|-------------------- 4----------|-------------------- 2----------|
A| 3-------------- 5--------------| 3-------------- 0--------------|
E|--------------------------------|--------------------------------|
http://classicalguitartablature.blogspot.com/
E| 2------------------------------|-------- 3-- 2-------------- 0--|
B| 3------ 3------ 1---- 1 3---- 3|-------------- 3-------- 3------|
G| 2---- 2-- 2---- 0-- 0------ 0--|------ 0------------ 2-- 2------|
D|---- 4------ 4 4 2 2---- 4 4----|---- 0-------------- 0----------|
A| 5-------------- 3------ 5------|--------------------------------|
E|--------------------------------| 3-------------- 2--------------|
http://classicalguitartablature.blogspot.com/
E|------ 3-- 2---------------- 0--|---------------- 0------ 0 2 3--|
B|------------------------ 3------|------ 1-- 3---- 0--------------|
G|------ 0---- 0-------- 0--------|------ 0 0-- 0-------- 0--------|
D|---- 0-------------- 4----------|---- 2 2---- 4------ 2----------|
A|-------------- 5----------------| 3------ 3-- 5------------------|
E| 0------------------------------|---------------- 0--------------|
http://classicalguitartablature.blogspot.com/
E|--------------------------------|-------- 3-- 2-------------- 0--|
B| 8------ 7-- 7---- 5------ 5 7--|-------------- 3-------- 3------|
G| 7---- 7------------ 7-- 7------|------ 0------------ 2-- 2------|
D|---- 7------------------ 7------|---- 0-------------- 0----------|
A| 5------------ 5----------------|--------------------------------|
E|--------------------------------| 3-------------- 2--------------|
http://classicalguitartablature.blogspot.com/
E|------ 3-- 2---------------- 0--|---------------- 0------ 0 2 3--|
B|------------------------ 3------|------ 1-- 3---- 0--------------|
G|------ 0---- 0-------- 0--------|------ 0 0-- 0-------- 0--------|
D|---- 0-------------- 4----------|---- 2 2---- 4------ 2----------|
A|-------------- 5----------------| 3------ 3-- 5------------------|
E| 0------------------------------|---------------- 0--------------|
http://classicalguitartablature.blogspot.com/
E|--------------------------------|--------------------------------|
B| 8---- 8---- 7 7-------- 7------| 3-- 1-- 1 0-- 0---------- 3-- 3|
G| 7---- 7---- 7 7------------ 7--| 0-- 0-- 0-------- 0---- 0---- 0|
D| 7-- 7------ 7------ 7----------| 2-- 2-- 2---------------- 0----|
A| 5-------------- 5--------------| 0------------ 0------------ 2 3|
E|--------------------------------|---------- 0--------------------|
http://classicalguitartablature.blogspot.com/
E|--------------------------------|--------------------------------|
B|---- 1 1-- 0-- 0----------------|--------------------------------|
G|---- 0 0-- 0-- 0-- 0-- 0---- 2--| 0------------------------------|
D| 2-- 2-- 2 2-- 4----------------| 0------------------------------|
A|-------------- 5----------------|--------------------------------|
E|---------- 3--------------------| 3------------------------------|
http://classicalguitartablature.blogspot.com/
0 com

Waiting In Vain (BASIC)

Bob Marley's tune fingerstyle chord melody guitar BASIC arrangement played in the key of G.

Waiting In Vain-Bob Marley-BASIC ARRANGEMENT played in the key of G.
http://classicalguitartablature.blogspot.com/
E| 2-- 2-- 2-- 2---- 2------ 0 2--| 3------------ 3---- 5---- 7-- 2|
B| 0-- 0-- 0-- 0---- 0-------- 0--| 0---------------------------- 0|
G| 0---- 0 0-- 0---- 0------ 0 0--| 0-- 0-------- 4---- 5---- 7-- 0|
D|--------------------------------|---- 2--------------------------|
A|-------- 5----------------------| 3-------- 3--------------------|
E| 3---------- 3------------------|------ 3---------------------- 3|
http://classicalguitartablature.blogspot.com/
E|-- 2-- 2-- 2-- 2---- 0---- 2-- 3|-------------- 0-- 0 0------ 0 0|
B|------ 0-- 0-- 0---- 0---- 0-- 0|------------------------ 0---- 3|
G|---- 0 0-- 0-- 0---- 0---- 0-- 0|---- 0-------- 0-- 0 0----------|
D|--------------------------------|-- 2----------------------------|
A|------ 5---------------------- 3|---------- 3--------------------|
E|---------- 3--------------------|------ 3------------------------|
http://classicalguitartablature.blogspot.com/
http://classicalguitartablature.blogspot.com/
E|-------------- 2---- 0---- 2-- 3|-------------- 0-- 0 0------ 0 0|
B|-- 3---------- 0---- 0---- 0-- 0|------------------------ 0---- 3|
G| 0 0---------- 0---- 0---- 0-- 0|---- 0-------- 0-- 0 0----------|
D|-- 0----------------------------|-- 2----------------------------|
A|------ 5---------------------- 3|---------- 3--------------------|
E| 3-------- 3--------------------|------ 3------------------------|
http://classicalguitartablature.blogspot.com/
E|-------------- 2---- 0---- 2-- 3|-------------- 0-- 0 0------ 0--|
B|-- 3---------- 0---- 0---- 0-- 0|------------------------ 0------|
G| 0 0---------- 0---- 0---- 0-- 0|---- 0-------- 0-- 0 0----------|
D|-- 0----------------------------|-- 2----------------------------|
A|------ 5---------------------- 3|---------- 3--------------------|
E| 3-------- 3--------------------|------ 3------------------------|
http://classicalguitartablature.blogspot.com/
E|--------------------------------|--------------------------------|
B| 0 0---- 0 0-- 0-- 1-- 3---- 0--|--------------------------------|
G| 0 0---- 0 0-- 0------------ 0--|-- 0 2 0------------ 0---- 0----|
D| 0-- 0---- 0-- 0------------ 2--|------ 2------------ 2---- 2----|
A|-------- 5-------------------- 3|---------- 3-------- 3------ 3--|
E| 3---------- 3------------------|------ 3-------------- 3--------|
http://classicalguitartablature.blogspot.com/
E|--------------------------------|--------------------------------|
B| 0 0---- 0 0-- 0-- 1-- 3---- 0--|--------------------------------|
G| 0 0---- 0 0-- 0------------ 0--|-- 0 2 0------------ 0---- 0----|
D| 0-- 0---- 0-- 0------------ 2--|------ 2------------ 2---- 2----|
A|-------- 5-------------------- 3|---------- 3-------- 3------ 3--|
E| 3---------- 3------------------|------ 3-------------- 3--------|
http://classicalguitartablature.blogspot.com/
E|--------------------------------|--------------------------------|
B|---------- 3-- 3-- 3 3-- 3---- 0|-- 0------ 0--------------------|
G|---- 4-- 4-------------------- 0|---- 2-- 0----------------------|
D|---- 5------------------------ 2|--------------------------------|
A|------ 5-------------- 5--------| 3-------- 3------ 3-------- 3--|
E| 3-------- 3------ 3------ 3----|------ 3---------------- 3------|
http://classicalguitartablature.blogspot.com/
E|--------------------------------|--------------------------------|
B|---------- 3-- 3 5 3------ 3-- 0|--------------------------------|
G|---- 4-- 4---- 4------ 5------ 0|-- 0---------------- 0----------|
D|---- 5-------- 5-------------- 2|---- 2-------------- 2----------|
A|------ 5-------------- 5------ 3|------------ 3------ 3------ 3--|
E| 3-------- 3------ 3------ 3----|-------- 3------------ 3--------|
http://classicalguitartablature.blogspot.com/
E|--------------------------------|--------------------------------|
B|---------- 3-- 3-- 3---- 3---- 0|-- 0------ 0--------------------|
G|---- 4-- 4---------- 5-------- 0|---- 2-- 0----------------------|
D|---- 5------------------------ 2|--------------------------------|
A|------ 5-------------- 5--------| 3-------- 3------ 3-------- 3--|
E| 3-------- 3------ 3------ 3----|------ 3---------------- 3------|
http://classicalguitartablature.blogspot.com/
E|--------------------------------|--------------------------------|
B|---------- 3-- 3 5 3------ 3-- 0|--------------------------------|
G|---- 4-- 4---- 4------ 5------ 0|-- 0---------------- 0----------|
D|---- 5-------- 5-------------- 2|---- 2-------------- 2----------|
A|------ 5-------------- 5------ 3|------------ 3------ 3------ 3--|
E| 3-------- 3------ 3------ 3----|-------- 3------------ 3--------|
http://classicalguitartablature.blogspot.com/
E|--------------------------------|--------------------------------|
B|---------- 3-- 3-- 3 3-- 3---- 0|-- 0------ 0--------------------|
G|---- 4-- 4-------------------- 0|---- 2-- 0----------------------|
D|---- 5------------------------ 2|--------------------------------|
A|------ 5-------------- 5--------| 3-------- 3------ 3-------- 3--|
E| 3-------- 3------ 3------ 3----|------ 3---------------- 3------|
http://classicalguitartablature.blogspot.com/
E|--------------------------------|--------------------------------|
B|---------- 3-- 3 5 3------ 3-- 0|--------------------------------|
G|---- 4-- 4---- 4------ 5------ 0|-- 0---------------- 0----------|
D|---- 5-------- 5-------------- 2|---- 2-------------- 2----------|
A|------ 5-------------- 5------ 3|------------ 3------ 3------ 3--|
E| 3-------- 3------ 3------ 3----|-------- 3------------ 3--------|
http://classicalguitartablature.blogspot.com/
E|--------------------------------|--------------------------------|
B|---------- 3-- 3-- 3---- 3---- 0|-- 0------ 0--------------------|
G|---- 4-- 4---------- 5-------- 0|---- 2-- 0----------------------|
D|---- 5------------------------ 2|--------------------------------|
A|------ 5-------------- 5--------| 3-------- 3------ 3-------- 3--|
E| 3-------- 3------ 3------ 3----|------ 3---------------- 3------|
http://classicalguitartablature.blogspot.com/
E|--------------------------------|--------------------------------|
B|---------- 3-- 3 5 3------ 3-- 0|--------------------------------|
G|---- 4-- 4---- 4------ 5------ 0|-- 0---------------- 0----------|
D|---- 5-------- 5-------------- 2|---- 2-------------- 2----------|
A|------ 5-------------- 5------ 3|------------ 3------ 3------ 3--|
E| 3-------- 3------ 3------ 3----|-------- 3------------ 3--------|
http://classicalguitartablature.blogspot.com/
E|--------------------------------|--------------------------------|
B| 0 0---- 0 0-- 0-- 1-- 3---- 0--|--------------------------------|
G| 0 0---- 0 0-- 0------------ 0--|-- 0 2 0------------ 0---- 0----|
D| 0-- 0---- 0-- 0------------ 2--|------ 2------------ 2---- 2----|
A|-------- 5-------------------- 3|---------- 3-------- 3------ 3--|
E| 3---------- 3------------------|------ 3-------------- 3--------|
http://classicalguitartablature.blogspot.com/
E|--------------------------------|--------------------------------|
B| 0 0---- 0 0-- 0-- 1-- 3---- 0--|--------------------------------|
G| 0 0---- 0 0-- 0------------ 0--|-- 0 2 0------------ 0---- 0-- 4|
D| 0-- 0---- 0-- 0------------ 2--|------ 2------------ 2---- 2----|
A|-------- 5-------------------- 3|---------- 3-------- 3------ 3--|
E| 3---------- 3------------------|------ 3-------------- 3--------|
http://classicalguitartablature.blogspot.com/
E|--------------------------------|--------------------------------|
B|-- 3 5-- 6 5 6------------ 3----| 1------ 0 0-------------- 0 3--|
G|------------------------ 4---- 0|---- 0-------- 2-- 0------------|
D|--------------------------------|-- 2----------------------------|
A|------ 5---------- 5------ 5----| 3-------- 3------ 3-------- 3--|
E| 3-------- 3------------ 3------|------ 3-------------- 3--------|
http://classicalguitartablature.blogspot.com/
E|--------------------------------|--------------------------------|
B|---- 5---- 3---- 3---- 3--------| 0 0-- 1-- 0--------------------|
G|---- 4---- 4-- 4 0---- 0---- 0--| 2 2-- 2---- 2 2------ 2---- 2--|
D|---- 5---------- 4---- 4---- 4--| 0 0---- 0---- 2------ 2---- 2--|
A| 3-------------- 5---------- 5--| 2------------ 0------------ 0--|
E|--------------------------------|--------------------------------|
http://classicalguitartablature.blogspot.com/
E|--------------------------------| 3 2------------ 0--------------|
B|---- 5---- 3---- 3---- 3--------| 3------ 5-- 3-- 1-------- 0----|
G|---- 4---- 4-- 4 0---- 0---- 0 2|-------------- 0------------ 2--|
D|---- 5---------- 4---- 4---- 4--|--------------------------------|
A| 3-------------- 5---------- 5 2|-------------- 0----------------|
E|--------------------------------|--------------------------------|
http://classicalguitartablature.blogspot.com/
E| 2-- 2-- 2-- 2---- 2------ 0 2--| 3------------ 3---- 5---- 7-- 2|
B| 0-- 0-- 0-- 0---- 0-------- 0--| 0---------------------------- 0|
G| 0---- 0 0-- 0---- 0------ 0 0--| 0-- 0-------- 4---- 5---- 7-- 0|
D|--------------------------------|---- 2--------------------------|
A|-------- 5----------------------| 3-------- 3--------------------|
E| 3---------- 3------------------|------ 3---------------------- 3|
http://classicalguitartablature.blogspot.com/
E|-- 2-- 2-- 2-- 2---- 0---- 2-- 3|-------------- 0-- 0 0------ 0 0|
B|------ 0-- 0-- 0---- 0---- 0-- 0|------------------------ 0---- 3|
G|---- 0 0-- 0-- 0---- 0---- 0-- 0|---- 0-------- 0-- 0 0----------|
D|--------------------------------|-- 2----------------------------|
A|------ 5---------------------- 3|---------- 3--------------------|
E|---------- 3--------------------|------ 3------------------------|
http://classicalguitartablature.blogspot.com/
E|-------------- 2---- 0---- 2-- 3|-------------- 0-- 0 0------ 0 0|
B|-- 3---------- 0---- 0---- 0-- 0|------------------------ 0---- 3|
G| 0 0---------- 0---- 0---- 0-- 0|---- 0-------- 0-- 0 0----------|
D|-- 0----------------------------|-- 2----------------------------|
A|------ 5---------------------- 3|---------- 3--------------------|
E| 3-------- 3--------------------|------ 3------------------------|
http://classicalguitartablature.blogspot.com/
E|-------------- 2---- 0---- 2-- 3|-------------- 0-- 0 0------ 0--|
B|-- 3---------- 0---- 0---- 0-- 0|------------------------ 0------|
G| 0 0---------- 0---- 0---- 0-- 0|---- 0-------- 0-- 0 0-------- 0|
D|-- 0----------------------------|-- 2----------------------------|
A|------ 5---------------------- 3|---------- 3--------------------|
E| 3-------- 3--------------------|------ 3---------------------- 3|
http://classicalguitartablature.blogspot.com/
E| 0------------------------------|--------------------------------|
B| 3 3----------------------------|--------------------------------|
G|--------------------------------|--------------------------------|
D|--------------------------------|--------------------------------|
A|--------------------------------|--------------------------------|
E|--------------------------------|--------------------------------|
http://classicalguitartablature.blogspot.com/
0 com

All By Myself (BASIC)

Celine Dion's tune fingerstyle chord melody guitar BASIC arrangement played in the key of A.

All By Myself-Celine Dion-BASIC ARRANGEMENT played in the key of A.
http://classicalguitartablature.blogspot.com/
E|--------------------------------|--------------------------------|
B|--------------------------------| 2 2 2 2-------------------- 2--|
G| 2------ 2------ 2------ 2------| 2 2 2 2-------- 2---- 2--------|
D|---- 2------ 2------ 2------ 2--| 2------ 2-- 2---- 2---------- 3|
A| 0------------------------------| 0---------------------------- 0|
E|--------------------------------|--------------------------------|
http://classicalguitartablature.blogspot.com/
E|--------------------------------|--------------------------------|
B| 2-- 3------ 2------------------|---------- 2---- 2-- 3---- 0----|
G| 2------ 4 2------------ 2------|------ 4-------- 3---- 4-- 3----|
D|------------ 2------ 2----------|---- 2-------- 2----------------|
A|---------------- 0---------- 0--|------------------------------ 2|
E|--------------------------------| 3------------ 2----------------|
http://classicalguitartablature.blogspot.com/
http://classicalguitartablature.blogspot.com/
E|--------------------------------|--------------------------------|
B|------------------ 2------------|-------- 0------ 3---------- 3--|
G|------ 2---------- 2-- 2-- 1----| 2---- 2-------- 2---- 2--------|
D|---- 0------------ 3------------|---- 2------ 2------ 3----------|
A|---------- 2 4 5----------------| 0-------------- 0--------------|
E|--------------------------------|--------------------------------|
http://classicalguitartablature.blogspot.com/
E|--------------------------------|--------------------------------|
B| 2 2 2 2-------------------- 2--| 2-- 3------ 2------------------|
G| 2 2 2 2-- 2------------ 2------| 2------ 4 2------------ 2------|
D|-- 2 2 2 2---- 2---- 2-------- 3|------------ 2------ 2----------|
A| 0-------------- 0------------ 0|---------------- 0---------- 0--|
E|--------------------------------|--------------------------------|
http://classicalguitartablature.blogspot.com/
E|--------------------------------|--------------------------------|
B|---------- 2---- 2-- 3---- 0----|------------------ 2------------|
G|------ 4-------- 3---- 4-- 3----|------ 2---------- 2-- 2-- 1----|
D|---- 2-------- 2----------------|---- 0------------ 3------------|
A|------------------------------ 2|---------- 2 4 5----------------|
E| 3------------ 2----------------|--------------------------------|
http://classicalguitartablature.blogspot.com/
E|------ 3------ 2----------------|--------------------------------|
B|------ 2-------- 5------ 5------| 4------ 3------ 3------ 3------|
G| 2-------------------- 3-- 3----| 2------ 4------ 2------ 1------|
D|-- 2------ 2-------- 2----------|---- 4-- 3-- 3 2---- 2-- 2-- 2--|
A| 4------------------------------| 2------ 5----------------------|
E|---------------- 2--------------|-------------- 0-------- 0------|
http://classicalguitartablature.blogspot.com/
E|---- 0---- 7------ 9------------|--------------------------------|
B|---- 0------ 0---- 0------ 5----|------ 5------ 5-- 5-------- 5--|
G|---- 6-- 6---- 7------ 9-- 4----|------ 4---------- 4-- 6 7------|
D|-------------------------- 6----|-- 6-- 6-------- 6 6-- 6--------|
A| 0---------------------------- 4|---------------- 4 4------------|
E|--------------------------------|------------ 4------------------|
http://classicalguitartablature.blogspot.com/
E|------------------ 9------------|--------------------------------|
B|-- 5--------12------------ 3----|------ 3-- 3 2-- 0------ 0------|
G|---- 4------ 9------------ 2----|------ 2-- 2 2-- 2------ 2-- 2--|
D|---- 2-- 2--11----------11 4----|-- 4------ 4 2 3---- 3----------|
A|---------------- 9------------ 2|---------- 2 4 5----------------|
E| 3------------------------------|--------------------------------|
http://classicalguitartablature.blogspot.com/
E|---- 0---- 7------ 9------------|--------------------------------|
B|---- 0------ 0---- 0------ 5----|------ 5------ 5-- 5-------- 5--|
G|---- 6-- 6---- 7------ 9-- 4----|------ 4---------- 4-- 6 7------|
D|-------------------------- 6----|-- 6-- 6-------- 6 6-- 6--------|
A| 0---------------------------- 4|---------------- 4 4------------|
E|--------------------------------|------------ 4------------------|
http://classicalguitartablature.blogspot.com/
E|------------------ 9------------|--------------------------------|
B|-- 5--------12------------ 3----|------ 3-- 3 2-- 6--------------|
G|---- 4------ 9------------ 2----|------ 2-- 2 2-- 4--------------|
D|---- 2-- 2--11----------11 4----|-- 4------ 4 2-- 7--------------|
A|---------------- 9------------ 2|---------- 2 4 5----------------|
E| 3------------------------------|--------------------------------|
http://classicalguitartablature.blogspot.com/
E|--------------------------------|--------------------------------|
B| 2 2 2 2-------------------- 2--| 2-- 3------ 2------------------|
G| 2 2 2 2-------- 2---- 2--------| 2------ 4 2------------ 2------|
D| 2------ 2-- 2---- 2---------- 3|------------ 2------ 2----------|
A| 0---------------------------- 0|---------------- 0---------- 0--|
E|--------------------------------|--------------------------------|
http://classicalguitartablature.blogspot.com/
E|--------------------------------|--------------------------------|
B|---------- 2---- 2-- 3---- 0----|------------------ 2------------|
G|------ 4-------- 3---- 4-- 3----|------ 2---------- 2-- 2-- 1----|
D|---- 2-------- 2----------------|---- 0------------ 3------------|
A|------------------------------ 2|---------- 2 4 5----------------|
E| 3------------ 2----------------|--------------------------------|
http://classicalguitartablature.blogspot.com/
E|--------------------------------|--------------------------------|
B|-------- 0------ 3---------- 3--|-- 0----------------------------|
G| 2---- 2-------- 2---- 2--------| 2------------------------------|
D|---- 2------ 2------ 3----------| 2------------------------------|
A| 0-------------- 0--------------| 0------------------------------|
E|--------------------------------|--------------------------------|
http://classicalguitartablature.blogspot.com/