To celebrate the anniversary, I am giving you (finally...) : iPhone LickByNeck !!!!!!
0 com

American Boy (BASIC)

Estelle's tune fingerstyle chord melody guitar BASIC arrangement played in the key of E.

American Boy-Estelle-BASIC ARRANGEMENT played in the key of E.
http://classicalguitartablature.blogspot.com/
E| 7------------------------------| 7---- 7---- 7---------------- 7|
B| 9--10-- 9----------10-- 9------|------ 8---------------------- 5|
G| 9-------- 9---------------- 9--| 9---- 9---- 9---------------- 5|
D|--------------------------------|----10------10----------10------|
A|---- 7---- 7------------ 7------|--------------------------------|
E| 0------ 0------ 0--------------| 8------ 8------ 8--------------|
http://classicalguitartablature.blogspot.com/
E|---- 5-------- 7-- 5---------- 7|------ 7---- 7---------- 5------|
B|---- 5-- 8 5-- 5-- 5---- 8 5----| 5---- 5---- 5------------------|
G|---- 5 5-- 5-- 5---- 5-- 5------| 5---- 5---- 5---------- 7------|
D|---- 7------ 7---------- 7------|---- 7------ 7------------------|
A|--------------------------------|---------------- 5--------------|
E| 5------ 5------ 5--------------| 5------ 5----------------------|
http://classicalguitartablature.blogspot.com/
http://classicalguitartablature.blogspot.com/
E|-------- 7----------------------|--------------------------------|
B| 9--10--------------------------|-- 7-- 8------------------------|
G| 9---------- 9-------- 9------ 9|--------------------------------|
D| 9---------- 9---------- 9------|----10------10------------------|
A|---- 7------ 7------------------|--------------------------------|
E| 0------ 0------ 0---- 0---- 0--| 8------ 8------ 8---- 8---- 8--|
http://classicalguitartablature.blogspot.com/
E| 7-- 5------ 5------------------|--------------------------------|
B|-------- 8---- 8---- 7-- 5-- 7--|------------ 8-- 7------------ 0|
G|--------------------------------|------------------ 9------------|
D|---- 7------ 7------------------|---- 7------ 7--------10--------|
A|--------------------------------|---------------- 5---- 5-- 5----|
E| 5------ 5------ 5---- 5---- 5--| 5------ 5----------------------|
http://classicalguitartablature.blogspot.com/
E|-------------- 2-- 2---- 2 0-- 2|---- 0---------- 2-- 2-- 2-- 0--|
B|---------- 0-- 0-- 0---- 0 0----|-------------------- 0-- 0---- 7|
G|------ 1------ 1-- 1---- 1-- 0--|------------ 0---------------- 5|
D|-- 2----------------------------|------ 2---------------------- 5|
A|--------------------------------| 3------------------------------|
E| 0------------------------------|--------------------------------|
http://classicalguitartablature.blogspot.com/
E|---------------- 7-- 5------ 7--|-- 5---- 3---- 5----------------|
B|---- 8---------- 5-- 5-- 8 5-- 5|-- 5-- 8---- 5 5---- 8-- 7-- 5--|
G|---- 5------ 5-- 5-- 5-- 5---- 5|------ 5---- 5-- 5-- 5-- 5-- 5--|
D|-------- 5-------------- 5------|------ 5---- 5---------- 5-- 5--|
A| 0------------------------------| 0-------------- 5--------------|
E|--------------------------------|--------------------------------|
http://classicalguitartablature.blogspot.com/
E|-------------- 2-- 2-- 2-- 0-- 2|---- 0-------- 2---- 2-- 2-- 0--|
B| 0---------- 0 0-- 0---- 0------|-------------------- 0-- 0---- 7|
G|-------- 1---- 1-- 1---- 1------|------------ 0------ 0-- 0------|
D|---- 2--------------------------|------ 2------------------------|
A|--------------------------------| 3------------------------------|
E| 0------------------------------|--------------------------------|
http://classicalguitartablature.blogspot.com/
E|---------------- 7 5-------- 5--|-------------- 5----------------|
B|---- 8------------ 5---- 8 5-- 5|---- 8-- 7-- 5-- 5-- 8-- 7-- 5--|
G|------------ 5-- 5 5------ 5-- 5|---- 5-- 5-- 5-- 5 5---- 5-- 5--|
D|-------- 5-------------- 5 5----|------------------ 5---- 5-- 5--|
A| 0------------------------------| 0-------------- 5--------------|
E|--------------------------------|--------------------------------|
http://classicalguitartablature.blogspot.com/
E|---------------- 7--------------|------------------------------ 5|
B|---------------- 9------10------| 8--10 8-- 7------------------ 5|
G|---------- 9------------ 9------| 9-- 9------ 9------------ 9-- 5|
D| 9------------------------------|----10------10------------------|
A|---- 7------ 7------------------|--------------------------------|
E| 0------ 0------ 0---- 0---- 0--| 8------ 8------ 8---- 8---- 8--|
http://classicalguitartablature.blogspot.com/
E|------------ 5---------------- 5|--------------------------------|
B|-- 8-- 7-- 5-------- 8 7---- 5 5|---- 8 7-- 5 7-------- 7------ 7|
G|-------------------- 5 5---- 5 5|--------------------------------|
D|---- 7------ 7-------- 5--------|---- 7------ 7------------------|
A|--------------------------------|---------------- 5---- 5-- 5----|
E| 5------ 5------ 5---- 5---- 5--| 5------ 5----------------------|
http://classicalguitartablature.blogspot.com/
E|--------------------------------|------------------------------ 7|
B|---- 7 7-- 7-- 7-------------- 7|-- 7-- 7------ 7-- 8------------|
G|------------------ 9------------|---------- 9--------------------|
D|--------------------------------|----10------10------------------|
A|---- 7------ 7------------------|--------------------------------|
E| 0------ 0------ 0---- 0---- 0--| 8------ 8------ 8---- 8---- 8--|
http://classicalguitartablature.blogspot.com/
E|---- 5------ 5------------------|--------------------------------|
B|------ 8-------- 8-- 7-- 5-- 7--|---------- 8-- 7---- 5----------|
G|--------------------------------|------------------------ 5------|
D|---- 7------ 7------------------|---- 7------ 7------------------|
A|--------------------------------|---------------- 5---- 5-- 5----|
E| 5------ 5------ 5---- 5---- 5--| 5------ 5----------------------|
http://classicalguitartablature.blogspot.com/
E| 7------------------------------| 7---- 7---- 7---------------- 7|
B| 9--10-- 9----------10-- 9------|------ 8---------------------- 5|
G| 9-------- 9---------------- 9--| 9---- 9---- 9---------------- 5|
D|--------------------------------|----10------10------------------|
A|---- 7------ 7------------------|--------------------------------|
E| 0------ 0------ 0---- 0---- 0--| 8------ 8------ 8---- 8---- 8--|
http://classicalguitartablature.blogspot.com/
E|---- 5-------- 7-- 5---------- 7|------ 7---- 7---------- 5------|
B|---- 5-- 8 5-- 5-- 5---- 8 5----| 5---- 5---- 5------------------|
G|---- 5 5-- 5-- 5---- 5-- 5------| 5---- 5---- 5------------------|
D|---- 7------ 7------------------|---- 7------ 7------------------|
A|--------------------------------|---------------- 5---- 5-- 5----|
E| 5------ 5------ 5---- 5---- 5--| 5------ 5----------------------|
http://classicalguitartablature.blogspot.com/
E|-------- 7----------------------|--------------------------------|
B| 9--10--------------------------|-- 7-- 8------------------------|
G| 9---------- 9-------- 9------ 9|--------------------------------|
D| 9---------- 9---------- 9------|----10------10------------------|
A|---- 7------ 7------------------|--------------------------------|
E| 0------ 0------ 0---- 0---- 0--| 8------ 8------ 8---- 8---- 8--|
http://classicalguitartablature.blogspot.com/
E| 7-- 5------ 5------------------|--------------------------------|
B|-------- 8---- 8---- 7-- 5-- 7--|------------ 8-- 7------------ 0|
G|--------------------------------|------------------ 9------------|
D|---- 7------ 7------------------|---- 7------ 7--------10--------|
A|--------------------------------|---------------- 5---- 5-- 5----|
E| 5------ 5------ 5---- 5---- 5--| 5------ 5----------------------|
http://classicalguitartablature.blogspot.com/
E|--------------------------------|--------------------------------|
B|--------------------------------|--------------------------------|
G|--------------------------------|--------------------------------|
D|--------------------------------|--------------------------------|
A|--------------------------------|--------------------------------|
E|--------------------------------|--------------------------------|
http://classicalguitartablature.blogspot.com/
0 com

Wicked Game (BASIC)

Chris Isaak's song fingerstyle chord melody guitar BASIC arrangement played in the key of Em.

Wicked Game-Chris Isaak-BASIC ARRANGEMENT played in the key of Em.
http://classicalguitartablature.blogspot.com/
E|---------------- 0------------ 7|--------------------------------|
B|------------------------------ 0|-------------------- 0----------|
G|------------------------------ 0|-------------------- 0----------|
D|--------------------------------|-------------------- 0----------|
A|--------------------------------|------------------------------ 5|
E|--------------------------------| 0---------- 0-- 0---------- 0--|
http://classicalguitartablature.blogspot.com/
E|-------------- 7-------------- 0|--------------------------------|
B|-------------- 7-------------- 2|---------------------- 3------ 2|
G|------------------------------ 2|-------------------- 2---- 2-- 2|
D|------------------ 7------------|---- 2--------------------------|
A|---------- 5-- 5---------- 5-- 0|------------ 0-- 0--------------|
E|--------------------------------|--------------------------------|
http://classicalguitartablature.blogspot.com/
http://classicalguitartablature.blogspot.com/
E|-------------- 0------ 0------ 7|--------------------------------|
B|---------- 3------------------ 0|------------------ 0------------|
G|---- 2------ 2---------------- 0|------------------ 0------------|
D|---------- 2--------------------|---- 0------------ 0------------|
A| 0---------- 0------------ 0----|------------------------------ 5|
E|------------------------------ 0|------------ 0-- 0---------- 0--|
http://classicalguitartablature.blogspot.com/
E|-------------- 5-------------- 0|--------------------------------|
B|-- 7---------- 7---- 8---- 7-- 2|---------------------- 3------ 2|
G|-- 7---------- 7---- 7---- 7-- 2|------------------ 2------ 2-- 2|
D|-- 7---------------- 7---- 7----|-- 2----------------------------|
A|---------- 5-- 5-------------- 0|---------- 0-- 0-------------- 0|
E|--------------------------------|--------------------------------|
http://classicalguitartablature.blogspot.com/
E|-------------- 0----------------|---- 2---- 3-- 5----------------|
B|---------- 3-- 3----------------| 5-------- 5-- 5----------------|
G|---------- 2--------------------| 4-------- 4-- 4---- 4----------|
D|---- 2---- 2------ 2------------|--------------------------------|
A|------------ 0-------------- 0--|--------------------------------|
E|--------------------------------| 0---------- 0-- 0---------- 0--|
http://classicalguitartablature.blogspot.com/
E| 5---------------------------- 0|--------------------------------|
B| 7-- 8------ 7-- 8-- 5----------| 2-------------------- 3------ 2|
G| 7-- 7---------- 7-- 7------ 7--| 2---------------- 2------ 2-- 2|
D|---- 7------ 7-- 7-- 7------ 7--|---- 2--------------------------|
A| 5---------- 5-- 5---------- 5--| 0-------- 0---- 0--------------|
E|--------------------------------|--------------------------------|
http://classicalguitartablature.blogspot.com/
E|--------------------------------|-------------- 7-------------- 5|
B|--------------------------------|---- 7---- 8-- 8-------------- 7|
G|------------------ 2---------- 9|------------------------------ 7|
D|---- 2------------ 2---------- 9|---------- 9-------- 9----------|
A| 0-------- 0-- 0---------- 0----|------------------------------ 5|
E|------------------------------ 0|---------- 0---- 0---------- 0--|
http://classicalguitartablature.blogspot.com/
E|---------------------------- 0--|--------------------------------|
B|-- 8------ 7-- 8---- 7----------|---------------------- 3--------|
G|-- 7------ 7-------- 7----------|---- 2-------------- 2---- 2----|
D|-- 7------ 7-- 7---- 7----------|---- 2--------------------------|
A|---------- 5---- 5--------------| 0---------- 0-- 0--------------|
E|--------------------------------|--------------------------------|
http://classicalguitartablature.blogspot.com/
E|------------------------------ 2|---- 2---- 2-- 2-- 2------ 2-- 2|
B| 2------------------------------| 0-- 0---- 0------ 0------ 0-- 3|
G|-------------------- 2----------| 0-- 0---- 0-- 0---- 0---- 0-- 2|
D|-- 2---------------- 2----------|--------------------------------|
A| 0---------- 0-- 0---------- 0--|------------------------------ 5|
E|--------------------------------| 0-------- 0-- 0------------ 0--|
http://classicalguitartablature.blogspot.com/
E|---- 0-------------- 0---- 2-- 0|--------------------------------|
B|---- 3---- 3-- 3---------- 3-- 2|---------------------- 3------ 2|
G|---------- 2-- 2---- 2---- 2-- 2|------------------ 2------ 2-- 2|
D|---------- 4-- 4----------------|---- 2--------------------------|
A|---------- 5-- 5------------ 5--| 0---------- 0-- 0--------------|
E|--------------------------------|--------------------------------|
http://classicalguitartablature.blogspot.com/
E|------------------------------ 2|---- 2---- 2-- 2-- 2------ 2-- 2|
B|------------------------------ 0|---- 0---- 0-- 0-- 0------ 0-- 3|
G|------------------ 2------ 2-- 0|---- 0---- 0-- 0-- 0------ 0-- 2|
D|-- 2-------------- 2------ 2----|--------------------------------|
A| 0-------- 0-- 0---------- 0----|--------------------------------|
E|--------------------------------| 0---------- 0 0----------------|
http://classicalguitartablature.blogspot.com/
E|-- 0---------------------- 0----|------------------------------ 0|
B|---- 3---- 3-- 3-- 2---------- 2|------------------ 2------ 3----|
G|---- 2---- 2-- 2-- 2---------- 0|------------------ 0------------|
D|---------- 4-- 4-- 4------------|-- 2-------------- 2------ 2----|
A| 5-------- 5-- 5---------- 5-- 0|---------- 0-- 0---------- 0----|
E|--------------------------------|--------------------------------|
http://classicalguitartablature.blogspot.com/
E|---------------------- 0------ 7|------------------------------ 5|
B| 2------------------------------|------------------ 0---------- 7|
G|------------------------------ 0|------------------ 0---------- 7|
D|-- 2---------------- 2----------|------------------ 0------------|
A| 0-------- 0-- 0---------- 0----|------------------------------ 5|
E|--------------------------------| 0-------- 0-- 0------------ 0--|
http://classicalguitartablature.blogspot.com/
E|---------------------------- 0--|-- 0----------------------------|
B|---- 8---- 7-- 7---- 5------ 2--|---- 2---------------- 3------ 2|
G|---- 7---- 7-------- 7------ 2--|---- 2------------ 2------ 2----|
D|---- 7---- 7---- 7-- 7----------|---- 2--------------------------|
A|---------- 5---- 5--------------| 0-------- 0-- 0---------- 0-- 0|
E|--------------------------------|--------------------------------|
http://classicalguitartablature.blogspot.com/
E|-------------- 0------ 0------ 7|------------------------------ 5|
B|---------- 3-- 3----------------|------------------ 0---------- 7|
G|---------- 2--------------------|------------------ 0---------- 7|
D|---------- 2--------------------|---- 0------------ 0------------|
A|------------ 0------------ 0----|------------------------------ 5|
E|------------------------------ 0|------------ 0-- 0-------- 0----|
http://classicalguitartablature.blogspot.com/
E|-------------------------- 0----|--------------------------------|
B|-- 8------ 7-- 8-- 7------ 2----|---------------------- 3------ 2|
G|-- 7------ 7-- 7-- 7------------|-- 2-------------- 2------ 2----|
D|-- 7------ 7-- 7-- 7------------|-- 2---------- 2----------------|
A|---------- 5-- 5-------------- 0|---------- 0-- 0---------- 0-- 0|
E|--------------------------------|--------------------------------|
http://classicalguitartablature.blogspot.com/
E|-------------- 0------ 2-- 0----|-- 7---------- 5-------- 5------|
B|---------- 3--------------------|------ 8------ 8-- 8------ 7-- 5|
G|-- 2------ 2------ 2------------|------ 0------------------------|
D|---------- 2------ 2------------|--------------------------------|
A|---------- 0-- 0----------------|------------------------------ 5|
E|------------------------------ 0|---------- 0--------------------|
http://classicalguitartablature.blogspot.com/
E|-------- 0----------------------|------------------------------ 0|
B|------ 5---- 5------ 3----------| 2---------------- 2------ 3-- 3|
G|-- 2------------------------ 2--| 2 2-------------- 2------ 2----|
D|--------------------------------|---- 2---------- 2-------- 2----|
A|------------ 5------------------| 0---------- 0-------------- 0--|
E|--------------------------------|--------------------------------|
http://classicalguitartablature.blogspot.com/
E|--------------------------------|-- 7---------- 5----------------|
B|--------------------------------|------ 8------ 8---- 8---- 7-- 5|
G|-------------------- 2----------|------ 0------ 0---- 0---- 0----|
D|-- 2---------------- 2----------|-------- 0----------------------|
A| 0---------- 0-------------- 0--|------------------------------ 5|
E|--------------------------------| 0---------- 0------------------|
http://classicalguitartablature.blogspot.com/
E|-------- 0----------------------|------------------------------ 0|
B|------ 5---- 5------ 3----------| 2---------------- 2------ 3-- 3|
G|-- 2------------------------ 2--| 2 2-------------- 2------ 2----|
D|--------------------------------|---- 2---------- 2-------- 2----|
A|------------ 5------------------| 0---------- 0-------------- 0--|
E|--------------------------------|--------------------------------|
http://classicalguitartablature.blogspot.com/
E|--------------------------------|-------------- 3---- 0----------|
B|--------------------------------|---------- 0-- 0---- 0------ 8--|
G|-------------------- 2----------|------ 0-------------------- 7--|
D|-- 2---------------- 2----------|-- 0------------------------ 7--|
A| 0---------- 0-------------- 0--|---------------------------- 5--|
E|--------------------------------| 0------------------------------|
http://classicalguitartablature.blogspot.com/
E|--------------------------------|--------------------------------|
B|---- 7---------- 7-- 5----------|--------------------------------|
G|---- 7------------ 7-- 7--------|---------- 7--------------------|
D|---- 7------------ 7------------|--------------------------------|
A|--------------------------------|--------------------------------|
E|--------------------------------|--------------------------------|
http://classicalguitartablature.blogspot.com/
E|--------------------------------|--------------------------------|
B|-- 7---- 5----------------------|--------------------------------|
G|-- 6---- 6----------------------|--------------------------------|
D|-- 7----------------------------|--------------------------------|
A| 0------------------------------|--------------------------------|
E|--------------------------------|--------------------------------|
http://classicalguitartablature.blogspot.com/
0 com

She Will Be Loved (BASIC)

Maroon 5's tune fingerstyle chord melody guitar BASIC arrangement played in the key of C.

She Will Be Loved - Maroon 5 - BASIC ARRANGEMENT played in the key of C.
http://classicalguitartablature.blogspot.com/
E|--------------------------------|--------------------------------|
B|-------- 1-- 1-- 1-- 1------ 0--|------------ 0------------ 0----|
G|-------- 0-- 0-- 0-- 0------ 0--|-------- 0------------ 0--------|
D|---- 2-- 2-- 2-- 2-- 2------ 0--|---- 0-------------- 0----------|
A| 0------------------------------|--------------------------------|
E|---------------------------- 3--|--------------------------------|
http://classicalguitartablature.blogspot.com/
E|--------------------------------|--------------------------------|
B|-------- 1-- 1-- 1-- 1------ 0--|------------ 0------------------|
G|-------- 0-- 0-- 0-- 0------ 0--|-------- 0-------------- 0------|
D|---- 2-- 2-- 2-- 2-- 2------ 0--|---- 0-------------- 0----------|
A| 0------------------------------|--------------------------------|
E|---------------------------- 3--|--------------------------------|
http://classicalguitartablature.blogspot.com/
http://classicalguitartablature.blogspot.com/
E|--------------------------------|--------------------------------|
B|-------- 1-- 1-- 1-- 1------ 3--|---- 0--------------------------|
G|-------- 0-- 0-- 0-- 0------ 0--|---- 0------ 2------ 0----------|
D|---- 2-- 2-- 2-- 2-- 2------ 0--|---- 0---------------------- 2--|
A| 0------------------------------|--------------------------------|
E|--------------------------------| 3------------------------------|
http://classicalguitartablature.blogspot.com/
E|--------------------------------|--------------------------------|
B|-------- 1-- 1-- 1-- 1------ 3--|-- 0----------------------------|
G|-------- 0-- 0-- 0-- 0------ 0--|---------- 2------------ 2------|
D|---- 2------ 2-- 2-- 2------ 0--|-------------------- 0------ 0--|
A| 0------------------------------|--------------------------------|
E|--------------------------------| 3-------------- 3--------------|
http://classicalguitartablature.blogspot.com/
E|--------------------------------|--------------------------------|
B|-------- 1-- 1-- 1-- 1------ 3--|---- 0--------------------------|
G|-------- 0-- 0-- 0-- 0------ 0--|---- 0------ 2------ 0----------|
D|---- 2-- 2-- 2-- 2-- 2------ 0--|---- 0---------------------- 2--|
A| 0------------------------------|--------------------------------|
E|--------------------------------| 3------------------------------|
http://classicalguitartablature.blogspot.com/
E|-------------------------- 0----|--------------------------------|
B|-------- 1-- 1-- 1-- 1------ 0--|---- 3 1 3----------------------|
G|-------- 0-- 0-- 0-- 0------ 0--|---- 0 0---------------- 0------|
D|---- 2-- 2-- 2-- 2-- 2----------|---- 0 0------------ 0------ 0--|
A| 0-------------- 0--------------|--------------------------------|
E|------------------------------ 3|---------------- 3--------------|
http://classicalguitartablature.blogspot.com/
E|--------------------------------|--------------------------------|
B|------------ 1-- 1-- 1------ 3--|---- 1------ 3------ 1------ 3--|
G|-------- 0------ 0-- 0------ 0--|---- 0------ 0------ 0------ 0--|
D|---- 2---------- 2-- 2------ 0--|---- 0------ 0------ 0------ 2--|
A| 0-------------- 0--------------|--------------------------------|
E|--------------------------------| 3-------------- 3--------------|
http://classicalguitartablature.blogspot.com/
E|--------------------------------|---- 0--------------------------|
B|---- 1------ 1------ 1-- 3-- 3--|--------------------------------|
G|---- 0------ 0------ 0-- 0-- 0--|------------ 0---------- 0------|
D|---- 2------ 2------ 2-- 2-- 0--|-------- 0---------- 0------ 0--|
A| 0-------------- 0--------------|--------------------------------|
E|--------------------------------| 3-------------- 3--------------|
http://classicalguitartablature.blogspot.com/
E|--------------------------------|--------------------------------|
B|------------ 1-- 1-- 1------ 3--|---- 1------ 3------ 1------ 3--|
G|-------- 0------ 0-- 0------ 0--|---- 0------ 0------ 0------ 0--|
D|---- 2---------- 2-- 2------ 0--|---- 0------ 0------ 0------ 2--|
A| 0-------------- 0--------------|--------------------------------|
E|--------------------------------| 3-------------- 3--------------|
http://classicalguitartablature.blogspot.com/
E|--------------------------------|---- 0--------------------------|
B|---- 1------ 1------ 1-- 3-- 3--|--------------------------------|
G|---- 0------ 0------ 0-- 0-- 0--|------------ 0---------- 0------|
D|---- 2------ 2------ 2-- 2-- 0--|-------- 0---------- 0------ 0--|
A| 0-------------- 0--------------|--------------------------------|
E|--------------------------------| 3-------------- 3--------------|
http://classicalguitartablature.blogspot.com/
E|--------------------------------|--------------------------------|
B|-------- 1-- 1-- 1------ 1-- 1--| 0-- 1------ 1------------------|
G|-------- 0-- 0-- 0------ 0-- 0--| 0-- 0------ 0------------------|
D|-------- 2-- 2-- 2------ 2-- 2--| 0-- 0------ 0------------------|
A| 3-- 3-- 3-- 3-- 3-- 3-- 3-- 3--|--------------------------------|
E|--------------------------------| 3-- 3-- 3-- 3-- 3-- 3-- 3-- 3--|
http://classicalguitartablature.blogspot.com/
E|--------------------------------|--------------------------------|
B|---- 1-- 1-- 1-- 1-- 1-- 1-- 1--| 0-- 1------ 3------ 1----------|
G|---- 0-- 0-- 0-- 0-- 0-- 0-- 0--| 0-- 0------ 0------ 0----------|
D|---- 2-- 2-- 2-- 2-- 2-- 2-- 2--| 0-- 0------ 0------ 0----------|
A| 0-- 0-- 0-- 0-- 0-- 0-- 0-- 0--|--------------------------------|
E|--------------------------------| 3-- 3-- 3-- 3-- 3-- 3-- 3-- 3--|
http://classicalguitartablature.blogspot.com/
E|--------------------------------|--------------------------------|
B|---- 1-- 1-- 1-- 1--------------| 0-- 1------ 1------------------|
G|---- 0-- 0-- 0-- 0------ 0-- 0--| 0-- 0------ 0------------------|
D|---- 2-- 2-- 2-- 2--------------| 0-- 0------ 0------------------|
A| 3-- 3-- 3-- 3-- 3-- 3-- 3-- 3--|--------------------------------|
E|--------------------------------| 3-- 3-- 3-- 3-- 3-- 3-- 3-- 3--|
http://classicalguitartablature.blogspot.com/
E|--------------------------------|---------------------------- 3--|
B|---- 1-- 1-- 1-- 1-- 1----------| 0-- 1------ 3------ 1----------|
G|---- 0-- 0-- 0-- 0-- 0-- 0-- 0--| 2-- 2------ 2------ 2----------|
D|---- 2-- 2-- 2-- 2------ 2-- 2--| 3-- 3------ 3------ 3----------|
A| 0-- 0-- 0-- 0-- 0-- 0-- 0-- 0--|--------------------------------|
E|--------------------------------| 1-- 1-- 1-- 1-- 1-- 1-- 1-- 1--|
http://classicalguitartablature.blogspot.com/
E|-------------------- 0------ 0--|---------------------------- 3--|
B|-------- 1---------- 1----------|-------------------- 1----------|
G|-------- 0----------------------|-------- 0---------- 0----------|
D|-------- 2----------------------|-------- 0---------- 0----------|
A| 3-- 3-- 3-- 3-- 3-- 3-- 3-- 3--|--------------------------------|
E|--------------------------------| 3-- 3-- 3-- 3-- 3-- 3-- 3-- 3--|
http://classicalguitartablature.blogspot.com/
E|-------------------- 0------ 0--|---------------------------- 3--|
B|-------- 1----------------------|---- 3------ 1------ 3 1--------|
G|-------- 0----------------------|---- 2------ 2------ 2-- 2------|
D|-------- 2----------------------|---- 3------ 3------ 3-- 3------|
A| 0-- 0-- 0-- 0-- 0-- 0-- 0-- 0--|--------------------------------|
E|--------------------------------| 1-- 1-- 1-- 1-- 1-- 1-- 1-- 1--|
http://classicalguitartablature.blogspot.com/
E|-------------------- 0------ 0--|---------------------------- 3--|
B|-------- 1---------- 1----------|-------------------- 1----------|
G|-------- 0----------------------|-------- 0---------- 0----------|
D|-------- 2----------------------|-------- 0---------- 0----------|
A| 3-- 3-- 3-- 3-- 3-- 3-- 3-- 3--|--------------------------------|
E|--------------------------------| 3-- 3-- 3-- 3-- 3-- 3-- 3-- 3--|
http://classicalguitartablature.blogspot.com/
E|-------------------- 0------ 0--|--------------------------------|
B|-------- 1----------------------|---- 3------ 1------ 3 1--------|
G|-------- 0----------------------|---- 2------ 2------ 2-- 2------|
D|-------- 2----------------------|---- 3------ 3------ 3-- 3------|
A| 0-- 0-- 0-- 0-- 0-- 0-- 0-- 0--|--------------------------------|
E|--------------------------------| 1-- 1-- 1-- 1-- 1-- 1-- 1-- 1--|
http://classicalguitartablature.blogspot.com/
E|--------------------------------|--------------------------------|
B|---------- 1---- 1 1-- 1---- 0--|--------------------------------|
G|------ 0------ 0-- 0---- 0------|---- 0------ 0-- 0 0---- 0-- 2--|
D|---- 2-------- 2-- 2---- 2------|-------- 0----------------------|
A| 0-------------- 0--------------|--------------------------------|
E|--------------------------------| 3-------------- 3--------------|
http://classicalguitartablature.blogspot.com/
E|--------------------------------|--------------------------------|
B|------------ 1-- 1-- 1-- 1-- 0--|------------ 0------------------|
G|-------- 2------ 2-- 2-- 2------|---- 0-------------- 0------ 2--|
D|---- 2-------------- 2-- 2------|-------- 0-------------- 0------|
A| 0-------------- 0--------------|--------------------------------|
E|--------------------------------| 3-------------- 3--------------|
http://classicalguitartablature.blogspot.com/
E|--------------------------------|--------------------------------|
B|------------ 1-- 1-- 1-- 1-- 0--|--------------------------------|
G|-------- 2------ 2-- 2-- 2------|-------- 0-- 0-- 0-- 0-- 0-- 2--|
D|---- 2---------- 2-- 2-- 2------|---- 0--------------------------|
A| 0-------------- 0--------------|--------------------------------|
E|--------------------------------| 3-------------- 3--------------|
http://classicalguitartablature.blogspot.com/
E|-- 0-- 0---- 0 0------------ 0--|--------------------------------|
B|---- 1 1---- 1 1---- 1 1---- 1--|---- 1-------- 1---- 3------ 1--|
G|---- 2 2---- 2 2---- 2 2---- 0--|---- 0---- 2---- 2---------- 2--|
D|------------------------ 2------|---- 0-------- 0------------ 3--|
A| 0-------------- 0--------------|--------------------------------|
E|------------------------------ 3|---------------- 3--------------|
http://classicalguitartablature.blogspot.com/
E|--------------------------------|--------------------------------|
B|------------ 1-------------- 1--|------------ 1-- 1-- 0----------|
G|-------- 2-------------- 2------|-------- 2---- 2-------- 2-- 0--|
D|---- 3-------------- 3----------|---- 3-------- 3----------------|
A|--------------------------------|--------------------------------|
E| 1-------------- 1--------------| 1-------------- 1--------------|
http://classicalguitartablature.blogspot.com/
E|--------------------------------|--------------------------------|
B|---- 1-- 1-- 1-- 1-- 1------ 3--|---- 0--------------------------|
G|---- 2-- 2-- 2-- 2-- 2----------|------------ 2------ 0----------|
D|---- 2-- 2-- 2-- 2-- 2----------|---------------------------- 2--|
A| 0------------------------------|--------------------------------|
E|--------------------------------| 3------------------------------|
http://classicalguitartablature.blogspot.com/
E|--------------------------------|--------------------------------|
B|---- 1-- 1-- 1-- 1-- 1------ 3--|---- 0--------------------------|
G|---- 0-- 0-- 0-- 0-- 0----------|------------ 2------------------|
D|---- 2-- 2-- 2-- 2-- 2----------|--------------------------------|
A| 0------------------------------|--------------------------------|
E|--------------------------------| 3------------------------------|
http://classicalguitartablature.blogspot.com/
E|--------------------------------|--------------------------------|
B|--------------------------------|-------- 1-- 1-- 1------ 1-- 1--|
G|--------------------------------|-------- 0-- 0-- 0------ 0-- 0--|
D|--------------------------------|-------- 2-- 2-- 2------ 2-- 2--|
A|--------------------------------| 3-- 3-- 3-- 3-- 3-- 3-- 3-- 3--|
E|--------------------------------|--------------------------------|
http://classicalguitartablature.blogspot.com/
E|--------------------------------|--------------------------------|
B| 0-- 1------ 1------------------|---- 1-- 1-- 1-- 1-- 1-- 1-- 1--|
G| 0-- 0------ 0------------------|---- 0-- 0-- 0-- 0-- 0-- 0-- 0--|
D| 0-- 0------ 0------------------|---- 2-- 2-- 2-- 2-- 2-- 2-- 2--|
A|--------------------------------| 0-- 0-- 0-- 0-- 0-- 0-- 0-- 0--|
E| 3-- 3-- 3-- 3-- 3-- 3-- 3-- 3--|--------------------------------|
http://classicalguitartablature.blogspot.com/
E|--------------------------------|--------------------------------|
B| 0-- 1------ 3------ 1----------|---- 1-- 1-- 1-- 1--------------|
G| 0-- 0------ 0------ 0----------|---- 0-- 0-- 0-- 0------ 0-- 0--|
D| 0-- 0------ 0------ 0----------|---- 2-- 2-- 2-- 2--------------|
A|--------------------------------| 3-- 3-- 3-- 3-- 3-- 3-- 3-- 3--|
E| 3-- 3-- 3-- 3-- 3-- 3-- 3-- 3--|--------------------------------|
http://classicalguitartablature.blogspot.com/
E|--------------------------------|--------------------------------|
B| 0-- 1------ 1------------------|---- 1-- 1-- 1-- 1-- 1----------|
G| 0-- 0------ 0------------------|---- 0-- 0-- 0-- 0-- 0-- 0-- 0--|
D| 0-- 0------ 0------------------|---- 2-- 2-- 2-- 2------ 2-- 2--|
A|--------------------------------| 0-- 0-- 0-- 0-- 0-- 0-- 0-- 0--|
E| 3-- 3-- 3-- 3-- 3-- 3-- 3-- 3--|--------------------------------|
http://classicalguitartablature.blogspot.com/
E|---------------------------- 3--|-------------------- 0------ 0--|
B| 0-- 1------ 3------ 1----------|-------- 1---------- 1----------|
G| 2-- 2------ 2------ 2----------|-------- 0----------------------|
D| 3-- 3------ 3------ 3----------|-------- 2----------------------|
A|--------------------------------| 3-- 3-- 3-- 3-- 3-- 3-- 3-- 3--|
E| 1-- 1-- 1-- 1-- 1-- 1-- 1-- 1--|--------------------------------|
http://classicalguitartablature.blogspot.com/
E|---------------------------- 3--|-------------------- 0------ 0--|
B|-------------------- 1----------|-------- 1----------------------|
G|-------- 0---------- 0----------|-------- 0----------------------|
D|-------- 0---------- 0----------|-------- 2----------------------|
A|--------------------------------| 0-- 0-- 0-- 0-- 0-- 0-- 0-- 0--|
E| 3-- 3-- 3-- 3-- 3-- 3-- 3-- 3--|--------------------------------|
http://classicalguitartablature.blogspot.com/
E|---------------------------- 3--|-------------------- 0------ 0--|
B|---- 3------ 1------ 3 1--------|-------- 1---------- 1----------|
G|---- 2------ 2------ 2-- 2------|-------- 0----------------------|
D|---- 3------ 3------ 3-- 3------|-------- 2----------------------|
A|--------------------------------| 3-- 3-- 3-- 3-- 3-- 3-- 3-- 3--|
E| 1-- 1-- 1-- 1-- 1-- 1-- 1-- 1--|--------------------------------|
http://classicalguitartablature.blogspot.com/
E|---------------------------- 3--|-------------------- 0------ 0--|
B|-------------------- 1----------|-------- 1----------------------|
G|-------- 0---------- 0----------|-------- 0----------------------|
D|-------- 0---------- 0----------|-------- 2----------------------|
A|--------------------------------| 0-- 0-- 0-- 0-- 0-- 0-- 0-- 0--|
E| 3-- 3-- 3-- 3-- 3-- 3-- 3-- 3--|--------------------------------|
http://classicalguitartablature.blogspot.com/
E|--------------------------------|--------------------------------|
B|---- 3------ 1------ 3 1--------| 1-------------- 0--------------|
G|---- 2------ 2------ 2-- 2------| 0-------------- 0--------------|
D|---- 3------ 3------ 3-- 3------| 2-------------- 2--------------|
A|--------------------------------| 3-- 3-- 3-- 3-- 3-- 3-- 3-- 3--|
E| 1-- 1-- 1-- 1-- 1-- 1-- 1-- 1--|--------------------------------|
http://classicalguitartablature.blogspot.com/
E|--------------------------------|--------------------------------|
B|---------------- 3--------------| 1------------ 0----------------|
G| 0-------------- 0--------------| 2-------------- 2--------------|
D| 0------------------------------| 2-------------- 2--------------|
A|--------------------------------| 0-- 0-- 0-- 0-- 0-- 0-- 0-- 0--|
E| 3-- 3-- 3-- 3-- 3-- 3-- 3-- 3--|--------------------------------|
http://classicalguitartablature.blogspot.com/
E|--------------------------------|--------------------------------|
B|---------------- 3--------------| 1-------------- 0--------------|
G| 0-------------- 0--------------| 0-------------- 0--------------|
D| 3-------------- 3--------------| 2-------------- 2--------------|
A|--------------------------------| 3-- 3-- 3-- 3-- 3-- 3-- 3-- 3--|
E| 1-- 1-- 1-- 1-- 1-- 1-- 1-- 1--|--------------------------------|
http://classicalguitartablature.blogspot.com/
E|--------------------------------|--------------------------------|
B|---------------- 3--------------| 1------------ 0----------------|
G| 0-------------- 0--------------| 2-------------- 2--------------|
D| 0------------------------------| 2-------------- 2--------------|
A|--------------------------------| 0-- 0-- 0-- 0-- 0-- 0-- 0-- 0--|
E| 3-- 3-- 3-- 3-- 3-- 3-- 3-- 3--|--------------------------------|
http://classicalguitartablature.blogspot.com/
E|--------------------------------|--------------------------------|
B|---------------- 3--------------|---- 1-- 1-- 1-- 1-- 1------ 3--|
G| 0-------------- 0--------------|---- 2-- 2-- 2-- 2-- 2----------|
D| 3-------------- 3--------------|---- 2-- 2-- 2-- 2-- 2----------|
A|--------------------------------| 0------------------------------|
E| 1-- 1-- 1-- 1-- 1-- 1-- 1-- 1--|--------------------------------|
http://classicalguitartablature.blogspot.com/
E|--------------------------------|--------------------------------|
B|---- 0--------------------------|---- 1-- 1-- 1-- 1-- 1------ 3--|
G|------------ 2------ 0----------|---- 0-- 0-- 0-- 0-- 0----------|
D|---------------------------- 2--|---- 2-- 2-- 2-- 2-- 2----------|
A|--------------------------------| 0------------------------------|
E| 3------------------------------|--------------------------------|
http://classicalguitartablature.blogspot.com/
E|--------------------------------|--------------------------------|
B|---- 0--------------------------|--------------------------------|
G|------------ 2------------------|--------------------------------|
D|--------------------------------|--------------------------------|
A|--------------------------------|--------------------------------|
E| 3------------------------------|--------------------------------|
http://classicalguitartablature.blogspot.com/