To celebrate the anniversary, I am giving you (finally...) : iPhone LickByNeck !!!!!!
0 com

Daahoud (Intermediate)

Clifford Brown's tune fingerstyle chord melody guitar intermediate arrangement played in the key of Eb.
Daahoud- Intermediate Arrangement played in the key of Eb.
http://classicalguitartablature.blogspot.com/
E|---- 2--------------------------|--------------------------------|
B|---- 4-- 4-- 2---------- 2-- 3--|--------------------------------|
G|---- 2-- 2-- 1------ 3-- 1-- 3--|------------ 3-------------- 0--|
D|-------- 4-- 0---------- 0-- 4--|------ 4------------ 4------ 2--|
A| 2------ 0------ 1--------------|---------------- 6--------------|
E|------------------------ 4------| 2------ 0-------------- 0------|
http://classicalguitartablature.blogspot.com/
E|---- 1---------------- 610--13--|--------------------------------|
B|---- 1-- 3-- 4-- 7------ 9--11--|--------------------------------|
G|---- 1-- 5-- 5-- 7------10--11--|---------------------- 8------ 6|
D|-------- 6-- 6-- 6--------------|------11------11------ 6------ 4|
A|-------- 6----------------------|--------------------------------|
E| 1-------------- 0------10------|11------ 9------ 8------ 6------|
http://classicalguitartablature.blogspot.com/
http://classicalguitartablature.blogspot.com/
E|----------11 9------14--11------|--------------------------------|
B|--------10--10--16------11--14--|11------ 8-- 9------------------|
G|---- 4-- 9-- 9--15------11--11--|11--11-- 9-- 8------------------|
D|---- 2----------14----------11--| 9------ 9---- 9---- 9------ 9--|
A|--------10----------------------|--------------------------------|
E| 4--------------14------12------|11------ 9------ 7------ 6------|
http://classicalguitartablature.blogspot.com/
E|-------- 6-- 4-- 6--------------|--------------------------------|
B|-------- 4-- 4-- 6-- 9-- 7---- 4|--------------------------------|
G| 4------ 3-- 3-- 7-- 7-- 7---- 3|------ 3------ 3------ 3--------|
D|------ 3------------ 6-- 6---- 5|------ 5------ 3------ 5------ 3|
A|---------------- 8------ 7------| 6------ 5------ 4------ 3------|
E| 4------ 2----------------------|--------------------------------|
http://classicalguitartablature.blogspot.com/
E|---- 2--------------------------|--------------------------------|
B|---- 4-- 4-- 2---------- 2-- 3--|--------------------------------|
G|---- 2-- 2-- 1------ 3-- 1-- 3--|------------ 3-------------- 0--|
D|-------- 4-- 0---------- 0-- 4--|------ 4------------ 4------ 2--|
A| 2------ 0------ 1--------------|---------------- 6--------------|
E|------------------------ 4------| 2------ 0-------------- 0------|
http://classicalguitartablature.blogspot.com/
E|---- 1---------------- 610--13--|--------------------------------|
B|---- 1-- 3-- 4-- 7------ 9--11--|--------------------------------|
G|---- 1-- 5-- 5-- 7------10--11--|---------------------- 8------ 6|
D|-------- 6-- 6-- 6--------------|------11------11------ 6------ 4|
A|-------- 6----------------------|--------------------------------|
E| 1-------------- 0------10------|11------ 9------ 8------ 6------|
http://classicalguitartablature.blogspot.com/
E|----------11 9------14--11------|--------------------------------|
B|--------10--10--16------11--14--|11------ 8-- 9------------------|
G|---- 4-- 9-- 9--15------11--11--|11--11-- 9-- 8------------------|
D|---- 2----------14----------11--| 9------ 9---- 9---- 9------ 9--|
A|--------10----------------------|--------------------------------|
E| 4--------------14------12------|11------ 9------ 7------ 6------|
http://classicalguitartablature.blogspot.com/
E|-------- 6-- 4-- 6--------------|--------------------------------|
B|-------- 4-- 4-- 6-- 9-- 7---- 4|--------------------------------|
G| 4------ 3-- 3-- 7-- 7-- 7---- 3|------ 3------ 3------ 3--------|
D|------ 3------------ 6-- 6---- 5|------ 5------ 3------ 5------ 3|
A|---------------- 8------ 7------| 6------ 5------ 4------ 3------|
E| 4------ 2----------------------|--------------------------------|
http://classicalguitartablature.blogspot.com/
E|---- 2--------------------------|--------------------------------|
B|---- 4-- 4-- 2---------- 2-- 3--|--------------------------------|
G|---- 2-- 2-- 1------ 3-- 1-- 3--|------------ 3-------------- 0--|
D|-------- 4-- 0---------- 0-- 4--|------ 4------------ 4------ 2--|
A| 2------ 0------ 1--------------|---------------- 6--------------|
E|------------------------ 4------| 2------ 0-------------- 0------|
http://classicalguitartablature.blogspot.com/
E|------------------------------11|--------------------11--11--11--|
B|-------------------- 3-- 4----14|--------------------11--11--11--|
G| 1------------ 3---- 5-- 5----13|----1311------11----10--10--10--|
D|---- 1-------- 2------ 3 4------|----11--------13----------------|
A|--------------------------------|13------12------11------10------|
E| 1------ 3------ 4------ 5------|--------------------------------|
http://classicalguitartablature.blogspot.com/
E|------------14------11------ 9--|11------------------------------|
B|------------14------ 8------ 8--| 9----------------------11-- 9--|
G|---- 8-- 6--12------ 8------ 8--|---- 8-------- 8 5------ 9-- 9--|
D|---- 8-- 6----------------------|-------------------- 5--11--11--|
A| 9------ 8----------------------|------------------------ 9------|
E|----------------11------ 9------| 8------ 6------ 4--------------|
http://classicalguitartablature.blogspot.com/
E|---------------------------- 9--|-------------------- 9-- 9-- 9--|
B|-------------------- 1-- 2-- 9--|--------------------12--12--12--|
G|------ 8---- 5------ 3-- 3-- 8--|---- 8------ 6------11-- 9-- 9--|
D|------ 7---- 5------ 5-- 2------|---- 6------ 8------------------|
A| 8------ 6------ 4------ 3------|----------------11------10------|
E|--------------------------------| 7------ 6----------------------|
http://classicalguitartablature.blogspot.com/
E|------------12------------------| 9------------------------------|
B|------------12------14------11--|11--------------11-- 9--11--11--|
G|------1010--10------11------11--|------11------1110--10--11------|
D|------ 9 9----------13------13--|---------------- 9-- 9--11------|
A|11------10------ 8--------------|--------------------------------|
E|------------------------11------| 9------11------10------ 0------|
http://classicalguitartablature.blogspot.com/
E|---- 1---------------- 610--13--|--------------------------------|
B|---- 1-- 3-- 4-- 7------ 9--11--|--------------------------------|
G|---- 1-- 5-- 5-- 7------10--11--|---------------------- 8------ 6|
D|-------- 6-- 6-- 6--------------|------11------11------ 6------ 4|
A|-------- 6----------------------|--------------------------------|
E| 1-------------- 0------10------|11------ 9------ 8------ 6------|
http://classicalguitartablature.blogspot.com/
E|----------11 9------14--11------|--------------------------------|
B|--------10--10--16------11--14--|11------ 8-- 9------------------|
G|---- 4-- 9-- 9--15------11--11--|11--11-- 9-- 8------------------|
D|---- 2----------14----------11--| 9------ 9---- 9---- 9------ 9--|
A|--------10----------------------|--------------------------------|
E| 4--------------14------12------|11------ 9------ 7------ 6------|
http://classicalguitartablature.blogspot.com/
E|-------- 6-- 4-- 6--------------|--------------------------------|
B|-------- 4-- 4-- 6-- 9-- 7---- 4|--------------------------------|
G| 4------ 3-- 3-- 7-- 7-- 7---- 3|------ 3------ 3------ 3--------|
D|------ 3------------ 6-- 6---- 5|------ 5------ 3------ 5------ 3|
A|---------------- 8------ 7------| 6------ 5------ 4------ 3------|
E| 4------ 2----------------------|--------------------------------|
http://classicalguitartablature.blogspot.com/
E|---- 2--------------------------|--------------------------------|
B|---- 4-- 4-- 2---------- 2-- 3--|--------------------------------|
G|---- 2-- 2-- 1------ 3-- 1-- 3--|------------ 3-------------- 0--|
D|-------- 4-- 0---------- 0-- 4--|------ 4------------ 4------ 2--|
A| 2------ 0------ 1--------------|---------------- 6--------------|
E|------------------------ 4------| 2------ 0-------------- 0------|
http://classicalguitartablature.blogspot.com/
E|-------- 6---------- 9-- 7-- 6--|------------ 6------ 4-- 2------|
B|-------- 6-- 9---------- 9-- 4--|------------ 4------ 2-- 2---- 6|
G|---- 4-- 5--10---------- 7-- 6--|---- 6------ 6------ 3-- 1---- 6|
D|---- 4------ 9------------------|------------------------------ 4|
A| 6------ 5----------------------|--------------------------------|
E|---------------- 9------ 7------| 6------ 4------ 2------ 1------|
http://classicalguitartablature.blogspot.com/
E|--------------------------------|---- 2-- 1-- 4------------------|
B|------------ 6------ 4-- 2-- 1--|-------- 1------ 7-- 6-- 4-- 3--|
G|------------ 6------ 1-- 3-- 2--|-------- 1------ 4------ 4---- 3|
D|---- 4------ 4------ 4-- 4-- 1--|---------------- 6------ 3---- 5|
A| 6------ 4------ 3------ 1------| 2------ 3------ 5------ 4------|
E|--------------------------------|--------------------------------|
http://classicalguitartablature.blogspot.com/
E|--------------------------------|--------------------------------|
B|--------------------------------|--------------------------------|
G|--------------------------------|--------------------------------|
D|--------------------------------|--------------------------------|
A| 6------------------------------|--------------------------------|
E|--------------------------------|--------------------------------|
http://classicalguitartablature.blogspot.com/
0 com

The End Of A Love Affair (Intermediate)

Jazz standard fingerstyle chord melody guitar intermediate arrangement played in the key of G.
The End Of A Love Affair - Intermediate ARRANGEMENT played in the key of G
http://classicalguitartablature.blogspot.com/
E|--------------------------------|---------------------------- 5--|
B| 3---- 3-------- 3---------- 3--| 3---------------------- 8------|
G| 3-- 3 3---- 5-- 5-- 5------ 5--| 4-- 4------ 4------ 7-- 7------|
D|-- 1-- 3-- 3------ 5------ 4----|-- 4------ 4------ 5------ 5----|
A|--------------------------------|--------------------------------|
E| 3------ 4------ 5------ 4---- 3|-------- 5------ 7------ 6------|
http://classicalguitartablature.blogspot.com/
E| 7---------- 7-- 7---- 5--------|--------------------------------|
B| 5---------- 5-- 7---- 5---- 8--| 7---------------------- 5-- 3--|
G| 5---------- 5-- 5---- 5---- 7--| 7-- 7------ 7------ 5-- 5------|
D|---- 5---------------------- 6--|-- 5------ 5------ 5------ 4----|
A|--------------------------------|--------------------------------|
E| 5------ 3------ 4---- 5---- 6--| 7------ 6------ 5---- 4--------|
http://classicalguitartablature.blogspot.com/
http://classicalguitartablature.blogspot.com/
E| 5---------- 5-- 5-- 3---- 1-- 0|--------------------------------|
B| 3---- 4-- 4---- 3-- 2---- 4-- 1|------------------------ 3-- 1--|
G| 3-- 3---- 2---- 3-- 0---- 3-- 2|------------ 2------ 5-- 0------|
D|-- 3----------------------------|---- 2---- 2------ 3------ 2----|
A|--------------------------------|------------------------ 1------|
E| 3------ 2------ 1---- 0-- 2-- 1|------ 3-------- 5--------------|
http://classicalguitartablature.blogspot.com/
E|------------------------ 6-- 8--| 3------ 3-- 3 3------ 1--------|
B| 8------ 8-- 8-- 8------ 6------| 5------ 5-- 5-- 3---- 4---- 4 3|
G| 8-- 8-- 8------ 7-- 7-- 5------| 5-- 5-- 3------ 1-- 1 3------ 3|
D|-- 6---- 6-- 6-- 6 6------ 5----|-- 3------ 5------ 3------ 1----|
A|--------------------------------|--------------------------------|
E| 8------ 7------ 6------ 5------| 4------ 3------ 1------ 2------|
http://classicalguitartablature.blogspot.com/
E|--------------------------------|---------------------------- 5--|
B|------ 3------ 3------------ 3--| 3---------------------- 8------|
G|---- 3 3---- 5 5---- 5------ 5--| 4-- 4------ 4------ 7-- 7------|
D|-- 1-- 3-- 3------ 5------ 4----|-- 4------ 4------ 5------ 5----|
A|--------------------------------|--------------------------------|
E| 3---- 4------ 5-------- 4---- 3|-------- 5------ 7------ 6------|
http://classicalguitartablature.blogspot.com/
E| 7---------- 7-- 7---- 5--------|--------------------------------|
B| 5---------- 5-- 7---- 5---- 8--| 7---------------------- 5-- 3--|
G| 5---------- 5-- 5---- 5---- 7--| 7-- 7------ 7------ 5-- 5------|
D|---- 5---------------------- 6--|-- 5------ 5------ 5------ 4----|
A|--------------------------------|--------------------------------|
E| 5------ 3------ 4---- 5---- 6--| 7------ 6------ 5---- 4--------|
http://classicalguitartablature.blogspot.com/
E| 5---------- 5-- 5-- 3---- 1-- 0|--------------------------------|
B| 3---- 4-- 4---- 3-- 2---- 4-- 1|------------------------ 3-- 1--|
G| 3-- 3---- 2---- 3-- 0---- 3-- 2|------------ 2------ 5-- 0------|
D|-- 3----------------------------|---- 2---- 2------ 3------ 2----|
A|--------------------------------|------------------------ 1------|
E| 3------ 2------ 1---- 0-- 2-- 1|------ 3-------- 5--------------|
http://classicalguitartablature.blogspot.com/
E|------------------------ 6-- 8--| 3------ 3-- 3 3------ 1--------|
B| 8------ 8-- 8-- 8------ 6------| 5------ 5-- 5-- 3---- 4---- 4 3|
G| 8-- 8-- 8------ 7-- 7-- 5------| 5-- 5-- 3------ 1-- 1 3--------|
D|-- 6---- 6-- 6-- 6 6------ 5----|-- 3------ 5------ 3------ 1----|
A|--------------------------------|--------------------------------|
E| 8------ 7------ 6------ 5------| 4------ 3------ 1------ 2------|
http://classicalguitartablature.blogspot.com/
E|--------------------------------|---------------------- 0--------|
B|------ 3------ 3------------ 3 3|---------------------- 7---- 7 8|
G| 3-- 3 3---- 5 5---- 5------ 5--| 2-- 2------ 2------ 2 4---- 4 7|
D|-- 1-- 3-- 3------ 5------ 4----|-- 2------ 2------ 2------ 7----|
A|--------------------------------|---------------------- 6------ 7|
E| 3---- 4------ 5-------- 4------| 3------ 2---- 0----------------|
http://classicalguitartablature.blogspot.com/
E|-------------- 7----------------|-------- 3-------------- 0-- 2--|
B|------ 5---- 8 8-------- 8------| 8------ 2-------------- 1-- 1--|
G|---- 7 5---- 5-- 9-- 9-- 9-- 9--| 7-- 7-- 2-- 2------ 2---- 2----|
D|-- 5------ 7------ 9------ 9----|-- 5------ 2------ 2------------|
A|------ 6------------------------|--------------------------------|
E|----------------10------ 9------| 7------ 5------ 3------ 2------|
http://classicalguitartablature.blogspot.com/
E|---------------- 7--------------|---------------------- 2---- 3--|
B| 8------ 5-- 8-- 8------ 8------| 8-------------------- 2--------|
G| 7-- 7-- 5-- 5-- 9-- 9-- 9-- 9--| 7-- 7------ 7------ 6-- 2------|
D|-- 5------ 7------ 9------ 9----|-- 5------ 5------ 5------ 2----|
A| 7------ 6----------------------|--------------------------------|
E|----------------10------ 9------| 7------ 6------ 5------ 3------|
http://classicalguitartablature.blogspot.com/
E| 5---------- 5-- 9------ 7------| 7------ 9--10--12----------12--|
B| 3------ 7------10------10--10--| 7------ 7------12----------12--|
G| 2-- 2-- 6------11--11-- 9-- 9--| 7-- 7---- 7----11--11------11--|
D|-- 4------ 7------11------ 7 8--|-- 7--------------12------12----|
A|--------------------------------|---------------- 0------11------|
E| 2------ 0------10------ 9-- 8--| 7------ 6----------------------|
http://classicalguitartablature.blogspot.com/
E|12------------------------------|---------------------------- 5--|
B|12--12------12------------------|------------------------ 8------|
G|--12------12-------- 6------ 6--|---- 5------ 2------ 2-- 7------|
D|------------------ 5------ 5----|-- 5------ 2------ 3------ 5----|
A|10------ 9---- 7------ 6------ 5|-------- 3---- 2----------------|
E|--------------------------------|------------------------ 6------|
http://classicalguitartablature.blogspot.com/
E| 7---------- 7-- 7---- 5--------|--------------------------------|
B| 5---------- 5-- 7---- 5---- 8--| 7---------------------- 5-- 3--|
G| 5---------- 5-- 5---- 5---- 7--| 7-- 7------ 7------ 5-- 5------|
D|---- 5---------------------- 6--|-- 5------ 5------ 5------ 4----|
A|--------------------------------|--------------------------------|
E| 5------ 3------ 4---- 5---- 6--| 7------ 6------ 5---- 4--------|
http://classicalguitartablature.blogspot.com/
E| 5---------- 5-- 5-- 3---- 1-- 0|--------------------------------|
B| 3---- 4-- 4---- 3-- 2---- 4-- 1|------------------------ 3-- 1--|
G| 3-- 3---- 2---- 3-- 0---- 3-- 2|------------ 2------ 5-- 0------|
D|-- 3----------------------------|---- 2---- 2------ 3------ 2----|
A|--------------------------------|------------------------ 1------|
E| 3------ 2------ 1---- 0-- 2-- 1|------ 3-------- 5--------------|
http://classicalguitartablature.blogspot.com/
E|------------------------ 6-- 8--| 3------ 3-- 3 3------ 1--------|
B| 8------ 8-- 8-- 8------ 6------| 5------ 5-- 5-- 3---- 4---- 4 3|
G| 8-- 8-- 8------ 7-- 7-- 5------| 5-- 5-- 3------ 1-- 1 3--------|
D|-- 6---- 6-- 6-- 6 6------ 5----|-- 3------ 5------ 3------ 1----|
A|--------------------------------|--------------------------------|
E| 8------ 7------ 6------ 5------| 4------ 3------ 1------ 2------|
http://classicalguitartablature.blogspot.com/
E|--------------------------------|10---------------------------- 7|
B|------ 3------ 3------------ 3--|10--------------------13----12 8|
G| 3-- 3 3---- 5 5---- 5------ 5--|10--10------10------1210----10 9|
D|-- 1-- 3-- 3------ 5------ 4----|--10------10------12------12 9--|
A|--------------------------------|10------------------------------|
E| 3---- 4------ 5-------- 4------|--------13------12------10-- 9--|
http://classicalguitartablature.blogspot.com/
E|-------- 7------ 7-- 7------ 5--| 8------------------ 7-- 5-- 3--|
B|-------- 8--10-- 5-- 7------ 5--| 8---------------- 6---- 4------|
G|---- 9-- 7------ 5-- 5------ 3--| 8-- 8------ 8---- 4------ 5----|
D|-- 9------ 7--------------------|-- 7------ 7--------------------|
A|--------------------------------| 8------ 6------ 5------ 3------|
E| 8------ 7------ 5-- 4-- 2------|--------------------------------|
http://classicalguitartablature.blogspot.com/
E|---------------- 2------ 2------| 5-------------------- 3--------|
B| 7------ 7-- 5-- 3------ 3-- 5--| 2-- 2---------------- 3---- 7--|
G| 7-- 7-- 7------ 4-- 4-- 2------|-- 3-------- 3------ 3-- 4-- 7--|
D|-- 5------ 5------ 4------ 2----|---------- 2------ 2------ 3 6--|
A|--------------------------------|--------------------------------|
E| 7------ 5------ 3------ 2------| 0------ 2------ 3------ 4-- 6--|
http://classicalguitartablature.blogspot.com/
E|--------------------------------| 0---------- 812----------------|
B| 5------ 5-- 3-- 5---- 5---- 3--| 1---- 8------12------------ 7--|
G| 5-- 5-- 4-- 4-- 5-- 5-- 2-- 2--| 2-- 2 6------11----11---- 4----|
D|-- 5------ 3------ 5-- 4-- 4----|-- 2------ 6------10------ 5----|
A|--------------------------------|------ 6-------------- 4--------|
E| 5------ 4------ 3------ 2------| 0--------------10--------------|
http://classicalguitartablature.blogspot.com/
E|--------------------------------|--------------------------------|
B| 8------------------------------|--------------------------------|
G| 8-- 8 7---- 7------ 7-- 5------| 2------------------------------|
D|-- 7------ 7------ 6---- 5-- 4--| 2------------------------------|
A|--------------------------------|--------------------------------|
E| 8------ 7------ 6------ 5-- 4--| 3------------------------------|
http://classicalguitartablature.blogspot.com/
0 com

Delores (Intermediate)

Wayne Shorter's tune fingerstyle chord melody guitar intermediate arrangement played in the key of C.
Delores - Wayne Shorter - Intermediate Arrangement played in the key of C.
http://classicalguitartablature.blogspot.com/
E|--------------------------------|--------------------------------|
B| 1------------------------------|------------ 6------------------|
G| 1------------------------------|-------- 6---------- 6----------|
D|---- 3-------- 1------ 1------ 1|---- 5------------------ 5------|
A| 4------ 3------ 1--------------|--------------------------------|
E|------------------------ 4------| 5------------------------------|
http://classicalguitartablature.blogspot.com/
E|--------------------------------| 8------------------------------|
B| 6------------------ 6-- 8--10--| 8-------------- 8------ 6-- 3--|
G| 5---------- 3------ 7-- 7------|---- 6-- 9------10------ 7-- 3--|
D|---- 3------ 5------ 7-- 7------|------------ 8------ 9-- 6------|
A| 5------ 4----------------------|------------------------ 7---- 6|
E|---------------- 8------ 7------| 6------ 8------10--------------|
http://classicalguitartablature.blogspot.com/
http://classicalguitartablature.blogspot.com/
E|--------------------1010---- 810|-------- 5------ 8------ 7------|
B|-------------------- 8 8------ 8|-------- 5------ 6------10--11--|
G|-------------------- 8 7--------| 9------ 5------ 5------ 7-- 8--|
D|---- 5------ 3------------------|---- 7------ 5------ 4------10--|
A|------ 5------------------------| 0---------------------- 9------|
E|-------------- 8------ 6--------|-------- 3------ 4--------------|
http://classicalguitartablature.blogspot.com/
E|--------------------------------|--------------------------------|
B|-------------------- 6 5------ 4|---------------- 6------ 5-- 4--|
G|-------------------- 4------ 7 5|-------- 5------ 8------ 5-- 5--|
D|----10------ 8------ 6-- 6------|---- 5------ 5------ 7-- 4-- 3--|
A| 8------10----------------------|------------------------ 5------|
E|-------------- 4------ 6------ 5|-------- 6------ 8--------------|
http://classicalguitartablature.blogspot.com/
E|--------------------------------|--------------------------------|
B|--------------------------------|--------------------------------|
G|-------------------- 6------ 6--|---- 3------ 3------ 1------ 0--|
D|---- 3------ 3------ 6------ 4--|---- 3------ 3------ 1------ 2--|
A| 4---- 3------------------------|--------------------------------|
E|---------------- 6------ 5------| 4------ 3------ 1------ 0------|
http://classicalguitartablature.blogspot.com/
E|--------------------------------| 8------------------------------|
B| 6------------------ 6-- 8--10--| 8-------------- 8------ 6-- 3--|
G| 5---------- 3------ 7-- 7------|---- 6-- 9------10------ 7-- 3--|
D|---- 3------ 5------ 7-- 7------|------------ 8------ 9-- 6------|
A| 5------ 4----------------------|------------------------ 7---- 6|
E|---------------- 8------ 7------| 6------ 8------10--------------|
http://classicalguitartablature.blogspot.com/
E|--------------------1010---- 810|-------- 5------ 8------ 7------|
B|-------------------- 8 8------ 8|-------- 5------ 6------10--11--|
G|-------------------- 8 7--------| 9------ 5------ 5------ 7-- 8--|
D|---- 5------ 3------------------|---- 7------ 5------ 4------10--|
A|------ 5------------------------| 0---------------------- 9------|
E|-------------- 8------ 6--------|-------- 3------ 4--------------|
http://classicalguitartablature.blogspot.com/
E|--------------------------------|--------------------------------|
B|-------------------- 6 5------ 4|---------------- 6------ 5-- 4--|
G|-------------------- 4------ 7 5|-------- 5------ 8------ 5-- 5--|
D|----10------ 8------ 6-- 6------|---- 5------ 5------ 7-- 4-- 3--|
A| 8------10----------------------|------------------------ 5------|
E|-------------- 4------ 6------ 5|-------- 6------ 8--------------|
http://classicalguitartablature.blogspot.com/
E|--------------------------------|------------------------ 6------|
B|--------------------------------|------------------------ 4------|
G|-------------------- 6------ 6--|---- 3------ 3------ 1-- 4------|
D|---- 3------ 3------ 6------ 4--|---- 3------ 3------ 1----------|
A| 4---- 3------------------------|------------------------ 6-- 4--|
E|---------------- 6------ 5------| 4------ 3------ 1--------------|
http://classicalguitartablature.blogspot.com/
E| 5------------------ 3-- 5-- 6--| 8------10------ 8---------- 8--|
B| 3------------------ 6-- 3-- 3--| 5------13------10------11--11--|
G|-------------------- 5-- 3-- 3--| 5------10---------- 9-- 8----10|
D|---- 3------ 3------------------|---- 5------12----------10------|
A| 3------------------------------| 0------11------10------ 9------|
E|-------- 6------ 5------ 3------|--------------------------------|
http://classicalguitartablature.blogspot.com/
E|------------------------ 5-- 6 8|------13------10------------ 5--|
B|-------------------- 8-- 3---- 5|------13------12--------11-- 8--|
G|-------------------- 5-- 3------| 5----12------11-------- 8-- 7--|
D|---- 8------ 8------ 5----------|---- 5------11------10--10------|
A|10------ 8------ 7------ 5------| 7------------------------------|
E|--------------------------------|--------11------10------ 8------|
http://classicalguitartablature.blogspot.com/
E|--------------------------------|---------------- 4------ 3-- 2--|
B|--------------------------------|---------------- 3------ 1-- 1--|
G|-------------------- 2------ 2--|---- 7---------- 4------ 2-- 2--|
D|------ 8---- 8------ 2------ 0--|---- 8------ 8------ 3----------|
A|-------- 0----------------------|-------- 5------ 4------ 2------|
E| 6-------------- 3------ 1------| 0------------------------------|
http://classicalguitartablature.blogspot.com/
E|--------------------------------|--------------------------------|
B|--------------------------------|--------------------------------|
G| 3------------------------------| 4---------- 2------ 2------ 1--|
D|---- 2------ 2------ 2------ 2--|---- 3------ 2------ 0------ 0--|
A| 3------ 1------ 0--------------|--------------------------------|
E|------------------------ 3------| 4------ 2------ 1------ 0------|
http://classicalguitartablature.blogspot.com/
E|--------------------1010---- 810|-------- 5------ 8------ 7------|
B|-------------------- 8 8------ 8|-------- 5------ 6------10--11--|
G|---- 3-------------- 8 7--------| 9------ 5------ 5------ 7-- 8--|
D|---- 5------ 3------------------|---- 7------ 5------ 4------10--|
A| 6------ 5----------------------| 0---------------------- 9------|
E|-------------- 8------ 6--------|-------- 3------ 4--------------|
http://classicalguitartablature.blogspot.com/
E|--------------------------------|--------------------------------|
B|-------------------- 6 5------ 4|---------------- 6------ 5-- 4--|
G|-------------------- 4------ 7 5|-------- 5------ 8------ 5-- 5--|
D|----10------ 8------ 6-- 6------|---- 5------ 5------ 7-- 4-- 3--|
A| 8------10----------------------|------------------------ 5------|
E|-------------- 4------ 6------ 5|-------- 6------ 8--------------|
http://classicalguitartablature.blogspot.com/
E|--------------------------------|--------------------------------|
B|--------------------------------|--------------------------------|
G|-------------------- 6------ 6--|---- 3------ 3------ 1------ 0--|
D|---- 3------ 3------ 6------ 4--|---- 3------ 3------ 1------ 2--|
A| 4---- 3------------------------|--------------------------------|
E|---------------- 6------ 5------| 4------ 3------ 1------ 0------|
http://classicalguitartablature.blogspot.com/
E|-------------------- 5----------| 8--------------------------10--|
B| 6------------------ 6-- 8-- 6--| 8-------------- 8------ 6--11--|
G| 5---------- 3------ 7-- 7-- 7--|---- 6-- 9------10------ 7--12--|
D|---- 3------ 5---------- 7-- 7--|------------ 8------ 9-- 6------|
A| 5------ 4----------------------|------------------------ 7------|
E|---------------- 8------ 7------| 6------ 8------10--------------|
http://classicalguitartablature.blogspot.com/
E|--------------------1010---- 810|-------- 5------ 8------ 7------|
B|-------------------- 8 8------ 8|-------- 5------ 6------10--11--|
G|-------------------- 8 7--------| 9------ 5------ 5------ 7-- 8--|
D|----12------12------------------|---- 7------ 5------ 4------10--|
A|--------------------------------| 0---------------------- 9------|
E|11------10---- 8------ 6--------|-------- 3------ 4--------------|
http://classicalguitartablature.blogspot.com/
E|--------------------------------|--------------------------------|
B|-------------------- 6 5------ 4|---------------- 6------ 5-- 4--|
G|-------------------- 4------ 7 5|-------- 5------ 8------ 5-- 5--|
D|----10------ 8------ 6-- 6------|---- 5------ 5------ 7-- 4-- 3--|
A| 8------10----------------------|------------------------ 5------|
E|-------------- 4------ 6------ 5|-------- 6------ 8--------------|
http://classicalguitartablature.blogspot.com/
E|--------------------------------|------------------------ 6------|
B|--------------------------------|------------------------ 4------|
G|-------------------- 6------ 6--|---- 3------ 3------ 1-- 4------|
D|---- 3------ 3------ 6------ 4--|---- 3------ 3------ 1----------|
A| 4---- 3------------------------|------------------------ 6-- 4--|
E|---------------- 6------ 5------| 4------ 3------ 1--------------|
http://classicalguitartablature.blogspot.com/
E| 5------------------------------|--------------------------------|
B| 3------------------------------|--------------------------------|
G| 3------------------------------|--------------------------------|
D|--------------------------------|--------------------------------|
A| 3------------------------------|--------------------------------|
E|--------------------------------|--------------------------------|
http://classicalguitartablature.blogspot.com/