To celebrate the anniversary, I am giving you (finally...) : iPhone LickByNeck !!!!!!
0 com

Overjoyed

Stevie Wonder's classic hit fingerstyle chord melody guitar arrangement played in the key of E.

Overjoyed played in the key of E.
Classical Guitar Tablature http://classicalguitartablature.blogspot.com/
E|--------------------------------|--------------------------------|
B|12------12----12----------12----|12--------12----12--------12----|
G|11----11----1110------10----10--| 9---- 9---- 9--10----10----10--|
D|-- 9-------------- 9------------|1010----------10-- 9---------- 9|
A|--------------------------------|--------------------------------|
E|10-------------- 9--------------| 8-------------- 9--------------|
Classical Guitar Tablature http://classicalguitartablature.blogspot.com/
E|--------------------------------|--------------------------------|
B|12------12----12----------12----|12--------12---- 5------ 4------|
G|11----11--11--10----10------10--| 9---- 9---- 9-- 6---------- 4--|
D| 9-- 9------------ 9---------- 9|10--10---------- 7--------------|
A|--------------------------------|--------------------------------|
E|10-------------- 9--------------| 8-------------- 7--------------|
Classical Guitar Tablature http://classicalguitartablature.blogspot.com/
Classical Guitar Tablature http://classicalguitartablature.blogspot.com/
E|--------------------------------|--------------------------------|
B| 5------ 5-------------- 4------| 5-------- 4---- 5------ 4------|
G| 4---- 4-- 4---------- 4-- 4----| 4---- 4---- 4-- 4-------- 4----|
D| 6-- 6------ 6---- 4------------|---- 6-------- 6---- 4---- 3----|
A| 7------------ 6----------------| 4------------------------------|
E|--------------------------------|-------- 7------ 4------ 3------|
Classical Guitar Tablature http://classicalguitartablature.blogspot.com/
E|--------------------------------|--------------------------------|
B|--------------------------------|-------------------- 4 5-- 4----|
G| 2-- 2-- 4------ 6-- 6-- 6---- 4|---- 4-- 2-- 2---- 5-------- 4--|
D| 2---- 2-- 4------ 6------ 4-- 4|------ 4-- 2---- 4---------- 4--|
A|--------------------------------| 2---- 4------ 5------------ 6--|
E| 2------ 4---- 5------ 6--------|--------------------------------|
Classical Guitar Tablature http://classicalguitartablature.blogspot.com/
E|--------------------------------|--------------------------------|
B| 0------------------ 5 5---- 4--|------ 5---- 4-- 0--------------|
G| 1---- 1-- 4-- 4---- 4 4---- 5--| 4---- 2---- 2-- 1---- 1--------|
D|---- 2------ 2---- 6-- 4---- 4--|-- 2---- 4---------- 2-- 2 2----|
A|---------------------- 6---- 5--| 4------ 3------ 2--------------|
E| 0------ 4------ 7--------------|------------------------ 4------|
Classical Guitar Tablature http://classicalguitartablature.blogspot.com/
E|--------------------------------|--------------------------------|
B|------------------------ 2------|--------------------------------|
G| 6---- 6-- 6-------- 3-- 3------| 5-- 5---- 1-- 1-- 1-- 1-- 1----|
D| 4-- 4------ 4---- 4-- 4---- 4--| 6---------- 1------ 1---- 1----|
A|--------------------------------| 6------ 3----------------------|
E| 6------ 4------ 2------ 0------|---------------- 4------ 2------|
Classical Guitar Tablature http://classicalguitartablature.blogspot.com/
E|--------------------------------|--------------------------------|
B| 4---- 2-- 1--------------------|--------------------------------|
G| 1---- 1-- 1-- 3---- 3----------| 3-- 3 5-- 3-- 5------------ 1--|
D| 3---- 3-- 1-- 3-- 3-- 3--------| 1-- 1 5-- 5-- 4------------ 1--|
A|---------- 3---- 4--------------| 3-------------- 6--------------|
E| 1---- 4---------------- 6-- 7--|-------- 6---------- 6-- 4------|
Classical Guitar Tablature http://classicalguitartablature.blogspot.com/
E|--------------------------------|--------------------------------|
B| 4---- 2------------------------|------ 4-- 2-- 4-------- 4------|
G| 4-- 4 4-- 4-- 3---- 3------ 4--| 6---- 4-- 3-- 4------------ 4--|
D| 2-- 2 2-- 2-- 2------ 2-- 2----| 4---- 4-- 4-- 4----------------|
A| 4------------------------------|---------- 4-- 6----------------|
E|------ 4-- 3-- 2-- 2---- 4------| 6---- 7------------------------|
Classical Guitar Tablature http://classicalguitartablature.blogspot.com/
E|--------------------------------|--------------------------------|
B| 5------ 5-------------- 4------| 5-------- 4---- 5------ 4------|
G| 4---- 4-- 4---------- 4-- 4----| 4---- 4---- 4-- 4-------- 4----|
D| 6-- 6------ 6---- 4------------|---- 6-------- 6---- 4---- 3----|
A| 7------------ 6----------------| 4------------------------------|
E|--------------------------------|-------- 7------ 4------ 3------|
Classical Guitar Tablature http://classicalguitartablature.blogspot.com/
E|--------------------------------|--------------------------------|
B|--------------------------------|-------------------- 4 5-- 4----|
G| 2-- 2-- 4------ 6-- 6-- 6---- 4|---- 4-- 2-- 2---- 5-------- 4--|
D| 2---- 2-- 4------ 6------ 4-- 4|------ 4-- 2---- 4---------- 4--|
A|--------------------------------| 2---- 4------ 5------------ 6--|
E| 2------ 4---- 5------ 6--------|--------------------------------|
Classical Guitar Tablature http://classicalguitartablature.blogspot.com/
E|--------------------------------|--------------------------------|
B| 0------------------ 5 5---- 4--|------ 5---- 4-- 0--------------|
G| 1---- 1-- 4-- 4---- 4 4---- 5--| 4---- 2---- 2-- 1---- 1--------|
D|---- 2------ 2---- 6-- 4---- 4--|-- 2---- 4---------- 2-- 2 2----|
A|---------------------- 6---- 5--| 4------ 3------ 2--------------|
E| 0------ 4------ 7--------------|------------------------ 4------|
Classical Guitar Tablature http://classicalguitartablature.blogspot.com/
E|--------------------------------|--------------------------------|
B|------------------------ 2------|--------------------------------|
G| 6---- 6-- 6-------- 3-- 3------| 5-- 5---- 1-- 1-- 1-- 1-- 1----|
D| 4-- 4------ 4---- 4-- 4---- 4--| 6---------- 1------ 1---- 1----|
A|--------------------------------| 6------ 3----------------------|
E| 6------ 4------ 2------ 0------|---------------- 4------ 2------|
Classical Guitar Tablature http://classicalguitartablature.blogspot.com/
E|--------------------------------|--------------------------------|
B| 4---- 2-- 1--------------------|--------------------------------|
G| 1---- 1-- 1-- 3---- 3----------| 3-- 3 5-- 3-- 5------------ 1--|
D| 3---- 3-- 1-- 3-- 3-- 3--------| 1-- 1 5-- 5-- 4------------ 1--|
A|---------- 3---- 4--------------| 3-------------- 6--------------|
E| 1---- 4---------------- 6-- 7--|-------- 6---------- 6-- 4------|
Classical Guitar Tablature http://classicalguitartablature.blogspot.com/
E|--------------------------------|--------------------------------|
B| 4---- 2------------------------|------ 4-- 2-- 4---------- 4 5 7|
G| 4-- 4 4-- 4-- 3---- 3------ 4--| 6---- 4-- 3-- 4------ 4 6-- 6 6|
D| 2-- 2 2-- 2-- 2------ 2-- 2----| 4---- 4-- 4-- 4-------- 6-- 5--|
A| 4------------------------------|---------- 4-- 6------------ 6--|
E|------ 4-- 3-- 2-- 2---- 4------| 6---- 7---------------- 6------|
Classical Guitar Tablature http://classicalguitartablature.blogspot.com/
E| 4------------------------------|------ 4-- 2--------------------|
B| 5---- 7------ 7-- 7-- 7--------| 7---- 5-- 4-- 5-- 5-- 5--------|
G| 4---- 9-- 6-- 6-- 6-- 6-- 6----| 4---- 5-- 2-- 4-- 4-- 4-- 4----|
D|------ 7-- 6-- 6-- 6-- 5-- 5----| 4------------ 6-- 6-- 3-- 3----|
A|--------------------------------|------ 5-- 3-- 4----------------|
E| 5---- 8-- 7---- 6------ 5------| 4---------------------- 3-- 3--|
Classical Guitar Tablature http://classicalguitartablature.blogspot.com/
E|------ 2-- 2--------------------|--------------------------------|
B| 5---- 3-- 3-- 4-- 4------------| 3-- 3 2-- 2-- 2-- 2-- 2-- 6 7 9|
G| 2---- 3------ 2-- 2-- 4-- 4 6--| 4-- 4 4-- 4-- 4-- 4---- 8-- 8--|
D| 2------------ 4-- 4------ 6----| 4-- 4 4-- 4-- 3-------- 8-- 7--|
A|-------- 3------ 2--------------|-------- 5-- 4-- 4---------- 8--|
E| 2---------------------- 5------| 4---------------------- 8------|
Classical Guitar Tablature http://classicalguitartablature.blogspot.com/
E| 6-- 6--------------------------|--------------------------------|
B| 7-- 7 9------ 9-- 9-- 9--------| 9-- 9 7---- 7-- 7---- 7 4------|
G| 8-- 8 8-- 8-- 6-- 6-- 6-- 6----| 6 6-- 6-- 6 6-- 6---- 6 4-- 4--|
D|-------------- 6-- 6-- 6-- 6----| 6-- 6 6-- 6 5---- 5-- 5 4-- 3--|
A|--------------------------------|--------------------------------|
E| 7------ 7------ 7------ 7---- 7| 6-- 6------ 6 5-------- 4-- 3--|
Classical Guitar Tablature http://classicalguitartablature.blogspot.com/
E|--------------------------------|--------------------------------|
B| 5-- 5---- 5-- 5-- 5---- 4------| 5-- 5-- 4---- 5-- 5---- 4------|
G| 2-- 2---- 4-- 4-- 4---- 4-- 4--| 6-- 6---- 4-- 2-- 2-------- 4--|
D| 2---- 2-- 4-- 4------ 4--------| 6-- 6-------- 2------ 4---- 4--|
A|--------------------------------|-------------- 4-------- 6-- 5--|
E| 2-------- 4---- 5--------------| 6------ 7----------------------|
Classical Guitar Tablature http://classicalguitartablature.blogspot.com/
E|--------------------------------|--------------------------------|
B| 7-- 7---- 7-- 7-- 7------ 7-- 6|-- 6 6-- 6 6 6-- 6-------- 6 7 9|
G| 8-- 8---- 8-- 8-- 8------ 8-- 8|-- 8 8-- 8 8 8-- 8---- 6 8------|
D| 9-------- 9-- 9-- 9------ 9-- 9|-- 9 9-- 9 9 9-- 9--------------|
A|--------------------------------|--------------------------------|
E| 9------ 9------ 9---- 9------ 9|-- 9 9-- 9 9-- 9 9--------------|
Classical Guitar Tablature http://classicalguitartablature.blogspot.com/
E| 6-- 6--------------------------|------ 6-- 4--------------------|
B| 7-- 7 9------ 9-- 9 9----------| 9---- 7-- 6-- 7-- 7-- 7 7------|
G| 6-- 611-- 8-- 8-- 8 8-- 8------| 6---- 7-- 4-- 6-- 6-- 6 6------|
D|------ 9-- 8-- 8-- 8 7----------| 6------------ 8-- 8-- 5 5------|
A|--------------------------------|------ 7-- 5-- 6----------------|
E| 7----10-- 9-- 8------ 7---- 7--| 6---------------------- 5-- 5--|
Classical Guitar Tablature http://classicalguitartablature.blogspot.com/
E|------ 4-- 4-- 1----------------|-------------------------- 3----|
B| 7-- 7 4-- 4-- 2-- 2-- 2---- 2 4| 5-- 5 4-- 2-- 4-- 4-- 4 6-- 911|
G| 4-- 4 4-- 4-- 1-- 1-- 1-- 3----| 6-- 6 1-- 1-- 3-- 3-- 3 5-- 9--|
D| 4-- 4------------ 3-- 3 4------| 5---- 3-- 3-- 1-- 1---- 3-- 8--|
A|--------------------------------| 6------------------------------|
E| 4------ 2------ 1------ 0------|------ 1-------- 3------ 5-- 8--|
Classical Guitar Tablature http://classicalguitartablature.blogspot.com/
E| 8---- 8------------------------|--------------------------------|
B| 9---- 911 9--11--1111--11----11|--11-- 9---- 9-- 9---- 6------ 7|
G|10----101010-- 8-- 8 8-- 8---- 8|-- 8---- 8-- 8-- 8---- 6---- 6 4|
D|-------------- 8------ 8 8---- 8|-- 8-------- 7-------- 6-- 4-- 4|
A|--------------------------------|--------------------------------|
E| 9-- 9-------- 9-------- 9 9 9 8|---- 8------ 7---- 7-- 6-- 5-- 4|
Classical Guitar Tablature http://classicalguitartablature.blogspot.com/
E|--------------------------------|--------------------------------|
B|-- 7------ 7------ 7---- 6------| 7-- 7-- 6---- 7-------- 6------|
G|---- 4------ 6------ 6------ 6--| 8-- 8---- 6-- 4-- 4-- 4---- 6--|
D|-------------- 6------ 6--------| 8------------------ 4----------|
A|--------------------------------|-------------- 6-------- 8------|
E|-------- 6------ 7--------------| 8------ 8----------------------|
Classical Guitar Tablature http://classicalguitartablature.blogspot.com/
E|--------------------------------|--------------------------------|
B| 9-- 9---- 9-- 7-- 7------ 7----| 8-- 8---- 8-- 8-- 8-- 8-- 8 7--|
G| 6-- 6---- 6-- 7---- 7---- 6----| 7-- 7---- 9-- 9-- 9 9---- 7 6--|
D| 8------------ 6---------- 8----| 9-- 9---- 9-- 7-- 7-- 7-- 7 6--|
A| 9------ 8------ 7------ 6------|--------------------------------|
E|--------------------------------|10------ 9------ 8------ 7-- 6--|
Classical Guitar Tablature http://classicalguitartablature.blogspot.com/
E|--------------------------------|---- 2-- 0----------------------|
B| 6-- 6---- 6---- 4-------- 0----|---- 0--------------------------|
G| 5-- 5---- 4---- 2-------- 2----|---- 1--------------------------|
D| 5-- 5---- 3---- 2-------- 1----|--------------------------------|
A|--------------------------------|--------------------------------|
E| 5------ 3------ 2-------- 1----|-- 0----------------------------|
Classical Guitar Tablature http://classicalguitartablature.blogspot.com/
E|--------------------------------|--------------------------------|
B|--------------------------------|--------------------------------|
G|--------------------------------|--------------------------------|
D|--------------------------------|--------------------------------|
A|--------------------------------|--------------------------------|
E|--------------------------------|--------------------------------|
0 com

Let It Be

Beatles classic fingerstyle solo guitar arrangement played in the key of E.

Let It Be played in the key of E.
Classical Guitar Tablature http://classicalguitartablature.blogspot.com/
E|12----11-- 9---- 7--------------|--------------------------------|
B|12---- 9----10-- 9----10---- 9--| 7------ 5-- 5 5------ 5--------|
G| 9----11---- 9-- 9-- 9 7---- 9--| 8---- 8 6-- 6 4---- 4----------|
D|---------------------- 7---- 7--| 9-- 9-- 7-- 7 6-- 6------------|
A| 0----11---- 9-- 7--------------|--------------------------------|
E|------------------------10-- 9--| 7------ 5------ 0--------------|
Classical Guitar Tablature http://classicalguitartablature.blogspot.com/
E|--------------------------------|--------------------------------|
B| 5---- 4---- 2 0----------------|---------------------------- 0 0|
G| 6---- 4---- 2 1---- 1 2---- 1--|------------------------------ 1|
D| 7 7-- 4---- 2 2-- 2-- 4---- 2--| 4-- 4 2-------- 2------ 2---- 2|
A|------------------------ 5-- 4--| 6 6-- 4---- 4-- 2-- 2----------|
E| 5------ 4-- 2-- 0--------------| 7------ 5------ 0------------ 0|
Classical Guitar Tablature http://classicalguitartablature.blogspot.com/
E|---------------------------- 2--| 4------------------------------|
B|---- 0-- 2---- 4-------- 5-- 4--| 5-- 9-- 9-- 7-- 5------ 5-- 5--|
G|------------ 1-- 4------ 5-- 2--|-- 4-- 8 9-- 6-- 6-- 6-- 4-- 4--|
D|------------ 2------ 4-- 4------|-- 6-- 7---- 6---- 6-- 6 4-- 3--|
A|-------- 2-- 4-- 6------ 5-- 3--| 4------------------------------|
E|--------------------------------|------ 8 7-- 6-- 5------ 4-- 3--|
Classical Guitar Tablature http://classicalguitartablature.blogspot.com/
E| 4---- 4 5-- 4-------- 4--------|--------------------------------|
B| 2-- 2 4 7-- 5-- 7---- 5---- 7--| 5---- 4-- 2-- 0------------ 0 0|
G|-- 2-- 4 6-- 6-- 9---- 5---- 6--| 6-- 6 4---- 2-- 1-- 1 2------ 1|
D|---------------- 7---------- 5 7|---- 7 4---- 2 2-- 2---------- 2|
A|------------------------ 5-- 6 7|-------- 6-- 4------------------|
E| 2---- 4 5-- 6-- 7-- 9----------|---------------- 0------------ 0|
Classical Guitar Tablature http://classicalguitartablature.blogspot.com/
E|---------------------------- 2--| 4------------------------------|
B|---- 0-- 2---- 4-------- 5-- 4--| 5-- 9-- 9-- 7-- 5------ 5-- 5--|
G|------------ 1-- 4------ 5-- 2--|-- 4-- 8 9-- 6-- 6-- 6-- 4-- 4--|
D|------------ 2------ 4-- 4------|-- 6-- 7---- 6---- 6-- 6 4-- 3--|
A|-------- 2-- 4-- 6------ 5-- 3--| 4------------------------------|
E|--------------------------------|------ 8 7-- 6-- 5------ 4-- 3--|
Classical Guitar Tablature http://classicalguitartablature.blogspot.com/
E| 4---- 4 5-- 4-------- 4--------|--------------------------------|
B| 2-- 2 4 7-- 5-- 7---- 5---- 7--| 5------ 9--14--12------ 9-- 7--|
G|-- 2-- 4 6-- 6-- 9---- 5---- 6--| 6-- 6-- 8--11-- 9------ 8-- 5--|
D|---------------- 7---------- 5 7|---- 7-- 9--14------ 9--11-- 6--|
A|------------------------ 5-- 6 7|-------- 9--12--11------ 9-- 6--|
E| 2---- 4 5-- 6-- 7-- 9----------|--------------------------------|
Classical Guitar Tablature http://classicalguitartablature.blogspot.com/
E|---------------- 9------ 7-- 7--|---------------- 4--------------|
B| 5------ 9----121212---- 9-- 4--| 9 7------------ 5---- 5---- 5--|
G| 4------ 6---- 9--11-- 9 8-- 4--| 9-- 9-- 6-- 4------ 4------ 4--|
D| 6 6---- 9---- 9------11--------| 7------ 6-- 4---- 4------ 3----|
A| 4-- 6 7----11--11--10-- 9-- 6--|--------------------------------|
E|--------------------------------| 9---- 8-- 7-- 5 4------ 3------|
Classical Guitar Tablature http://classicalguitartablature.blogspot.com/
E|-------- 5-- 4-- 4--------------|--------------------------------|
B| 9-- 9-- 7-- 7-- 5-- 7-- 9-- 7--| 5---- 7---- 7-- 9------ 9-- 7--|
G| 9-- 7-- 6-- 6-- 5-- 6-- 7-- 7--| 6---- 4---- 6-- 9---- 9 8-- 5--|
D| 7-- 9-------------- 7-- 6-- 7--| 7-- 7-- 4-- 7-- 9 9----11-- 6--|
A| 9-- 8-- 7-- 6------------------| 4------ 6-- 7--11------ 9-- 6--|
E|---------------- 4-- 5-- 6-- 7--|--------------------------------|
Classical Guitar Tablature http://classicalguitartablature.blogspot.com/
E|---------------- 9------ 7-- 7--|---------------- 4--------------|
B| 5------ 9----121212---- 9-- 4--| 9 7------------ 5---- 5---- 5--|
G| 4------ 6---- 9--11-- 9 8-- 4--| 9-- 9-- 6-- 4------ 4------ 4--|
D| 6 6---- 9---- 9------11--------| 7------ 6-- 4---- 4------ 3----|
A| 4-- 6 7----11--11--10-- 9-- 6--|--------------------------------|
E|--------------------------------| 9---- 8-- 7-- 5 4------ 3------|
Classical Guitar Tablature http://classicalguitartablature.blogspot.com/
E|-------- 5-- 4-- 4--------------|------------------------------12|
B| 9-- 9-- 7-- 7-- 5-- 7-- 9-- 7--| 5----------------------------12|
G| 9-- 7-- 6-- 6-- 5-- 6-- 7-- 7--| 6------ 8-- 6 4---------- 4-- 9|
D| 7-- 9-------------- 7-- 6-- 7--|---- 7-- 6-- 4 2---------- 2----|
A| 9-- 8-- 7-- 6------------------| 4---------------------------- 0|
E|---------------- 4-- 5-- 6-- 7--|-------- 7-- 5 4---- 2 0---- 4--|
Classical Guitar Tablature http://classicalguitartablature.blogspot.com/
E|------11-- 9-- 7----------------|--------------------------------|
B|------ 9--10-- 9---- 910---- 9--| 7------ 5-- 5 5------ 5--------|
G|-- 9--11-- 9-- 9------ 7---- 9--| 8---- 8 6-- 6 4---- 4----------|
D|---------------------- 7---- 7--| 9-- 9-- 7-- 7 6-- 6------------|
A|------11-- 9-- 7----------------|--------------------------------|
E|------------------------10-- 9--| 7------ 5------ 0--------------|
Classical Guitar Tablature http://classicalguitartablature.blogspot.com/
E|--------------------------------|--------------------------------|
B| 5---- 4---- 2 0----------------|--------------------------------|
G| 6---- 4---- 2 1---- 1 2---- 1--|--------------------------------|
D| 7 7-- 4---- 2 2-- 2-- 4---- 2--| 4-- 4 2-------- 2------ 2------|
A|------------------------ 5-- 4--| 6 6-- 4---- 4-- 2-- 2----------|
E| 5------ 4-- 2-- 0--------------| 7------ 5------ 0--------------|
Classical Guitar Tablature http://classicalguitartablature.blogspot.com/
0 com

Happy Birthday

Happy Birthday tune fingerstyle chord melody guitar arrangement played in the key of G.

Happy Birthday played in the key of G.
Classical Guitar Tablature http://classicalguitartablature.blogspot.com/
E| 8------ 8------ 7--------------|--------------------------------|
B|---------------------- 5--------| 8------------------------------|
G|-------------------- 5----------|------ 7------------ 9----------|
D|---------------------- 5--------|------ 7------------ 9----------|
A|--------------------------------|--------------------------------|
E|---------------------- 5--------|------ 7-------- 8--------------|
Classical Guitar Tablature http://classicalguitartablature.blogspot.com/
E|--------------------------------|-------- 3---- 3----------------|
B|10------10------ 8---------- 8--|-------- 4---- 3------------ 6--|
G| 9------ 8------ 8---------- 7--|-------- 5------ 4---------- 5--|
D|10------10------ 7---------- 6--|---------------------------- 4--|
A|-------- 9------ 8--------------|------------------------ 4-- 5--|
E|10-------------------------- 6--|-------- 4------ 3--------------|
Classical Guitar Tablature http://classicalguitartablature.blogspot.com/
Classical Guitar Tablature http://classicalguitartablature.blogspot.com/
E|--------------------------------|--------------------------------|
B|------ 3 3------ 5---- 5-- 5----| 3------ 8------ 7---------- 7--|
G|------ 3 3------ 4---- 4---- 4--| 5------ 7------ 6---- 6---- 5--|
D|-------- 2------ 4---- 4---- 3--| 5------ 6------ 5---- 5---- 7--|
A|--------------------------------|---------------- 6------ 5------|
E|------ 2 2------ 3---- 3 4---- 4|-- 5---- 6----------------------|
Classical Guitar Tablature http://classicalguitartablature.blogspot.com/
E|---- 3--------------------------|-------- 5------ 3--------------|
B| 5-- 5-- 3-- 3-- 5--------------| 3------ 5------ 3---- 3---- 5--|
G| 4-- 4-- 3-- 3-- 7---- 7-- 7----| 5------ 5------ 4---- 4---- 5--|
D|-------- 2-- 2-------- 7-- 6----| 5-- 5---------------------- 5--|
A| 4------------------------------|--------------------------------|
E|-------- 2------ 7------ 6------| 5------ 4------ 3---------- 5 5|
Classical Guitar Tablature http://classicalguitartablature.blogspot.com/
E|----------------10--------------|--------------------------------|
B| 8--------------10--------------|12------ 8------ 7--------------|
G| 7------ 7---- 710----10--------|10------10------ 9---- 9--------|
D| 5------ 7----------------------|12--12-- 9------ 9--------------|
A|------------------------11---- 0|10---------------------- 9-- 0--|
E| 7------ 8--------10------------|-------- 9------ 8--------------|
Classical Guitar Tablature http://classicalguitartablature.blogspot.com/
E|-------- 8-- 8-- 7--------------|-------- 7------ 5--------------|
B|-------- 8-- 8-- 7--------------| 8------ 7------ 5--------------|
G|---------------- 7---- 7 8------| 7-- 7-- 6------ 5---- 5 6------|
D|---- 7--------------------------| 6------------------------------|
A| 8---------------------- 8---- 0| 7---------------------- 6-- 0--|
E|---------------- 7--------------|-------- 6-- 0-- 5--------------|
Classical Guitar Tablature http://classicalguitartablature.blogspot.com/
E|--------------------------------|-------- 3------ 2---- 2-- 2----|
B|---- 6-- 3---- 3 5---- 5-- 5----| 3------ 4------ 3---- 3-- 3----|
G|---- 5-- 3---- 3 4---- 4-- 4----| 3------ 4------ 3---- 3--------|
D|---- 4-- 2------ 5---- 5-- 3----| 2------------------------------|
A| 5-------------- 4--------------|-------- 4------ 3--------------|
E|-------- 2-------------- 0 3----|-- 2-------------------- 3-- 3--|
Classical Guitar Tablature http://classicalguitartablature.blogspot.com/
E|---------------- 0-------- 0----|-------- 5----------------------|
B| 3------ 3------ 0---- 0-- 1----| 3------ 6------ 8------ 8---- 8|
G| 2------ 2------ 0---- 0--------| 2------ 5------ 8------ 8---- 7|
D|-------- 1----------------------| 1-------------- 8------ 7---- 7|
A|--------------------------------|--------------------------------|
E| 2------ 1------ 0------ 1------| 1------ 6------ 9------ 8---- 7|
Classical Guitar Tablature http://classicalguitartablature.blogspot.com/
E|----------------10----10----10--| 7------------------------------|
B|---------------- 8---- 8---- 8--| 8------ 8------ 7---- 5--------|
G|-------- 7---- 7 9---- 9--------| 7------ 8------ 6---- 5--------|
D|-------- 6------ 7--------------|-------- 7------ 4---- 4--------|
A|--------------------------------|-------- 8------ 6--------------|
E|-------- 6-------------- 7------| 8------------------------ 4-- 0|
Classical Guitar Tablature http://classicalguitartablature.blogspot.com/
E|-------- 8-- 8-- 7--------------|--------------------------------|
B| 5------ 8------ 7--------------| 8------------------10----------|
G| 5------ 7------ 8-- 8----------|10------------------ 8----------|
D| 5------------------------------|11------------------ 8----------|
A|--------------------------------|-------- 7------ 8--------------|
E| 5------ 6------ 9------10------|11---------------------- 8------|
Classical Guitar Tablature http://classicalguitartablature.blogspot.com/
E|--------------------------------|--------------------------------|
B|10------10------ 8---------- 8--|-------- 8----------------------|
G|10------ 8------ 7---------- 7--|-------- 6----------------------|
D| 9------10------ 7---------- 6--|-------- 5----------------------|
A|-------- 9----------------------|--------------------------------|
E| 9-------------- 7---------- 6--|-------- 5----------------------|
Classical Guitar Tablature http://classicalguitartablature.blogspot.com/
E| 8------ 8------ 7--------------|--------------------------------|
B| 6------ 6------ 7---------- 8--|----------------10--------------|
G| 6------ 6------ 8---------- 9--|----------------12--------------|
D|----------------------------10--|----------------11--------------|
A|-------- 6----------------------|--------------------------------|
E| 6-------------- 9----------10--|----------------11--------------|
Classical Guitar Tablature http://classicalguitartablature.blogspot.com/
E|--------------------------------|--------------------------------|
B|----10---------- 8---------- 8--|-------- 8----------------------|
G|------11-------- 8---------- 8--|-------- 7----------------------|
D|------12-------- 7--------------|-------- 5----------------------|
A|---------------- 8--------------|--------------------------------|
E|12-------------------------- 8--|-------- 7----------------------|
Classical Guitar Tablature http://classicalguitartablature.blogspot.com/
E|--------------------------------|--------------------------------|
B|--------------------------------|--------------------------------|
G|--------------------------------|--------------------------------|
D|--------------------------------|--------------------------------|
A|--------------------------------|--------------------------------|
E|--------------------------------|--------------------------------|
0 com

Nothing Gonna Change My Love For You

George Benson's hit ballad fingerstyle solo guitar arrangement played in the key of G.

Nothing Gonna Change My Love For You played in the key of G.
Classical Guitar Tablature http://classicalguitartablature.blogspot.com/
E|--------------------------------|--------------------------------|
B| 0---- 0---- 0 1---- 3-- 1------| 0-------- 0---- 1---- 3-- 0-- 1|
G| 0-- 0---- 0-- 0-- 0 2-- 0---- 0| 0---- 0------ 0 0-- 0 2--------|
D|-- 0---- 0------ 2------ 2-- 2--|---- 0------ 0-- 2 2------------|
A|--------------------------------|--------------------------------|
E| 3-------------- 3---- 3--------| 3-------------- 3--------------|
Classical Guitar Tablature http://classicalguitartablature.blogspot.com/
Classical Guitar Tablature http://classicalguitartablature.blogspot.com/
E|-------------------------- 5-- 3|---------------- 2-- 3 2--------|
B| 3 0 3-- 0---- 3-- 0-- 3--------|------ 0-------- 3---- 3-- 3----|
G| 0 0-------- 0 2------ 2------ 2|-------- 4-------- 2---- 0 0----|
D| 0-- 0---- 0---------- 0---- 0--|-- 5-------- 5 0----------------|
A|--------------------------------|-------------- 6-------- 0 2----|
E| 3------------ 2----------------| 0------------------------------|
Classical Guitar Tablature http://classicalguitartablature.blogspot.com/
E|--------------------------------|--------------------------------|
B| 0 3---------------- 3-------- 1|-- 3-- 5 3---------------- 0----|
G| 0---- 0-- 0------ 0---------- 0|-- 0-- 4 4---- 2---- 2------ 5--|
D| 2-------------- 0------ 0 0 0 2|-- 0-- 5 5---- 4-- 4-- 4--------|
A| 3---------- 0-- 2------------ 0|-- 2-- 3------ 5---------- 5----|
E|------ 3------------------------|--------------------------------|
Classical Guitar Tablature http://classicalguitartablature.blogspot.com/
E|-------------------------- 5-- 3|---------------- 2-- 3 2--------|
B| 3 0 3-- 0---- 3-- 0-- 3--------|------ 0-------- 3---- 3-- 3----|
G| 0 0-------- 0 2------ 2------ 2|-------- 4-------- 2---- 0 0----|
D| 0-- 0---- 0---------- 0---- 0--|-- 5-------- 5 0----------------|
A|--------------------------------|-------------- 6-------- 0 2----|
E| 3------------ 2----------------| 0------------------------------|
Classical Guitar Tablature http://classicalguitartablature.blogspot.com/
E|--------------------------------|--------------------------------|
B| 0 3---------------- 3-------- 1|-- 3-- 5 3----------------------|
G| 0---- 0-- 0------ 0---------- 0|-- 0-- 4 4---- 2---- 2---- 0-- 0|
D| 2-------------- 0------ 0 0 0 2|-- 0-- 5 5---- 4-- 4-- 4--------|
A| 3---------- 0-- 2------------ 0|-- 2-- 3------ 5----------------|
E|------ 3------------------------|--------------------------------|
Classical Guitar Tablature http://classicalguitartablature.blogspot.com/
E|---------- 5-- 3----------------| 8-- 7 8--10---- 7--10----------|
B|---- 7-- 8 5-- 3-- 3-- 3------ 3|10-- 6 6--10---- 8-- 8-- 8------|
G| 9------ 9 5-- 4-- 0-- 0---- 0--| 7-- 7-- 610-- 9---- 7-- 9-- 7--|
D|-- 9----10-------- 0------ 0----|-------- 6-------------- 9-- 6--|
A|--------10 7-- 5-- 2------------| 8-- 7-- 6----------------------|
E| 8-------------------- 3--------|----------10-- 9---- 7 8---- 6--|
Classical Guitar Tablature http://classicalguitartablature.blogspot.com/
E|--------------------------------|---------------- 7-- 5----------|
B| 5-- 7 8------------ 7 8------ 5|---- 7-- 8-- 5-- 5------ 8--10--|
G| 5-- 9 5---- 5-- 7-- 7 9-- 9 9 5|---- 7-- 7-- 5-- 5-- 5-- 9-- 8--|
D|---- 7 5-- 5---- 9-- 7 9--------| 5-- 7-- 6-- 5------ 5-- 8--10--|
A|------ 7------------------------|------------------------ 9-- 8--|
E| 5-- 8----------10-- 7 9--------| 8-- 7-- 6-- 5 5----------------|
Classical Guitar Tablature http://classicalguitartablature.blogspot.com/
E|------------------------------ 5|-- 7-- 7 7----------------------|
B|-------------- 8---- 5---- 5-- 3|-------- 8------ 3 5---- 5---- 5|
G|---- 7------ 5------ 5---- 5-- 4|-- 5-- 5 7-- 7-- 4------ 5-- 5--|
D|--10--10-- 5------ 5------ 4----|---------------- 5------ 5------|
A| 7------ 6------ 5--------------|---------------- 3-- 5-- 7---- 9|
E|---------------------- 4------ 3|---- 5-- 7----------------------|
Classical Guitar Tablature http://classicalguitartablature.blogspot.com/
E|---- 5 5 5---------- 8-- 7-- 5--|-------- 2 3---- 7--------------|
B|1010 8-- 5------ 4-- 8-- 5-- 4--|-- 8 8 8 5 5---- 810-- 5-- 7----|
G| 7 7 5 5---- 5-- 4-- 7-- 4-- 5--|-- 7 5 5 4 4---- 9 7-- 7-- 6----|
D| 7 7------ 5---- 4 4------------|-- 5 7 7---------- 7-- 6-- 5 5--|
A|---- 7-- 5----------------------| 7-- 6 6 5-- 4------------------|
E|------------ 8-- 7-- 6-- 5-- 2--|---------------- 8 7-- 6-- 5----|
Classical Guitar Tablature http://classicalguitartablature.blogspot.com/
E| 3-- 3 3 3 3 3------------------|-- 7 7 7 7----------------------|
B|-- 1 2 2 3 3 4-- 8 7-- 5-- 3----|10------ 8-------- 5 5-- 5------|
G| 2-- 2 2 2 2 2-- 6 5-- 4-- 3----| 7---- 7---- 7-- 7------ 5------|
D|---------------- 8 4-- 3-- 2----| 9-------- 9---- 5---- 5-- 5----|
A|---------------- 6---- 4--------|10-- 9-- 7----------------------|
E| 3---------- 1---- 4------ 2----|------------10-- 8-- 7-- 5-- 3--|
Classical Guitar Tablature http://classicalguitartablature.blogspot.com/
E| 5 5 5 5 5---------- 8-- 7-- 5--|-------- 2 3---- 7--------------|
B| 3 3 5 5 5------ 4-- 8-- 5-- 4--|-- 8 8 8 5 5---- 810-- 5-- 7----|
G| 2 2 5 5-- 5 5-- 4-- 7-- 4-- 5--|-- 7 5 5 4 4---- 9 7-- 7-- 6----|
D|------------ 5-- 4 4------------|-- 5 7 7---------- 7-- 6-- 5 5--|
A|-------- 5----------------------| 7-- 6 6 5-- 4------------------|
E| 2-- 0------ 8-- 7-- 6-- 5-- 2--|---------------- 8 7-- 6-- 5----|
Classical Guitar Tablature http://classicalguitartablature.blogspot.com/
E| 3-- 3-- 3-- 3------------------|--------------------------------|
B| 1-- 1-- 3-- 3-- 8-- 7-- 5-- 7--| 8------ 8---- 8-------- 8---- 8|
G| 2 2-- 2 2 2 2-- 5-- 7-- 2-- 7--| 7---- 7---- 7 6---- 6------ 6 5|
D|---------------- 5-- 7-- 2-- 5--| 5-- 5------ 5---- 5------------|
A|-------------------- 5-- 3------|--------------------------------|
E| 3------ 2------ 0---------- 6--| 6------------ 5----------------|
Classical Guitar Tablature http://classicalguitartablature.blogspot.com/
E|---------------- 3--------------|--------------------------------|
B|-------- 8---- 7 3--------------|--------------------------------|
G|---- 5------ 5-- 2--------------|--------------------------------|
D|-- 6------ 6--------------------|--------------------------------|
A|--------------------------------|--------------------------------|
E| 4-------------- 3--------------|--------------------------------|
Classical Guitar Tablature http://classicalguitartablature.blogspot.com/
0 com

Mickey Mouse Club Theme

Mickey Mouse Club Theme fingerstyle chord melody guitar arrangement played in the key of E.

http://classicalguitartablature.blogspot.com/
Mickey Mouse Club theme played in the key of E.
Classical Guitar Tablature http://classicalguitartablature.blogspot.com/
E|--------------------------------|--------------------------------|
B| 5-- 5 5---- 5 5---- 5 5---- 5 5|---- 5------ 5 5---- 5 5---- 5 5|
G| 4-- 4 4---- 4 4---- 4 4---- 4 4|---- 4------ 4 4---- 4 4---- 4--|
D| 6-- 6 6---- 6 6---- 6 4---- 4 6|---- 6 6---- 6 6---- 6 4---- 4--|
A| 7-------------- 4---- 6------ 6|---------------- 4---- 6--------|
E|------ 7------------------------|------ 7------------------------|
Classical Guitar Tablature http://classicalguitartablature.blogspot.com/
E|--------------------------------|--------------------------------|
B|---- 5-- 4-- 4 2---- 2 4---- 4 5|---- 5 4---- 4 2-- 2-- 4-- 4-- 5|
G| 4-- 4-- 4-- 4 2---- 2 4---- 4 4|---- 4 4---- 4 2-- 2-- 4-- 4-- 4|
D| 6-- 6-- 4-- 4 2---- 2 4---- 4 6|---- 6 4---- 4 2-- 2-- 4-- 4-- 6|
A| 7------------ 4------ 6--------|------ 2------ 4------ 6------ 7|
E|-------- 7-------------------- 0|--------------------------------|
Classical Guitar Tablature http://classicalguitartablature.blogspot.com/
E|--------------------------------|--------------------------------|
B|---- 5 5---- 5 5---- 5 5---- 5 7|---- 5 4------------------------|
G|---- 4 4---- 4 4---- 4 4---- 4 6|---- 6------ 6 4-------- 4------|
D|------ 4------ 6---- 6 6---- 6 7|---- 7-------------- 2-- 4------|
A|------ 6------ 4----------------|------------------------ 2------|
E|------------------------ 7---- 5|------ 4-------- 2--------------|
Classical Guitar Tablature http://classicalguitartablature.blogspot.com/
E|------------------------------ 4|--------------------------------|
B| 5-- 5-- 5---- 5---- 5 5------ 5|---- 5-- 7-- 4-- 5------ 4------|
G| 4-- 4-- 4------ 2-- 2 2--------| 6------ 4-- 4-- 4------ 4------|
D| 6-- 6-- 4------ 2-- 2 2--------|---------------- 6------ 7------|
A| 7------ 5------ 4------ 3------|-------- 6----------------------|
E|------------------------------ 7|---------------- 0------ 7------|
Classical Guitar Tablature http://classicalguitartablature.blogspot.com/
E|--------------------------------| 2------------------------------|
B| 5-- 5-- 5-- 5-- 5-- 5 5---- 5--| 2-- 5-- 4----------------------|
G| 4------ 7-- 7-- 4-- 4 4---- 4--| 2-- 4-- 6-- 6 4-------- 2------|
D| 6-- 6-- 7-- 6-- 4-- 4 4---- 3--|---- 4-- 6-- 6-- 4------ 1------|
A|--------------------------------|---------------- 2--------------|
E| 0------ 7-- 6-- 5-- 5-- 4-- 3--| 2-- 4-- 5-- 6---------- 1------|
Classical Guitar Tablature http://classicalguitartablature.blogspot.com/
E| 0---- 0---------------------- 4|--------------------------------|
B| 0-- 0 3------ 5---- 5 5------ 5|-- 5-- 7-- 4-- 5------ 5---- 5--|
G| 1-- 1-- 2---- 4---- 4 5------ 6|-- 6-- 6-- 2-- 5------ 7---- 7--|
D|-------------- 3---- 3 4--------|-- 6-- 7-- 4-- 4------ 7---- 6--|
A|--------------------------------|------------ 3 5----------------|
E| 0------ 2---- 3---- 3 4------ 5|-- 6-- 7-------------- 7---- 6--|
Classical Guitar Tablature http://classicalguitartablature.blogspot.com/
E|-------- 5------ 5--------------|------ 4---- 4-- 4--------------|
B| 2------ 2-- 2-- 2------ 5-- 5--|-------- 2-- 2-- 2-- 2-------- 2|
G| 2-- 2-- 2-- 2-- 2------ 2-- 2--| 4-- 4 4---- 4-- 4-- 4-------- 3|
D| 2-- 2------------------ 2------| 2-- 2--------------------------|
A|--------------------------------|------------------------ 2------|
E| 5------ 4------ 2------ 0------| 4------ 2------ 0--------------|
Classical Guitar Tablature http://classicalguitartablature.blogspot.com/
E|--------------------------------|------ 7------------------------|
B|---- 2---- 2---------- 4---- 5 7|------ 7------12------12------ 5|
G|---- 3---- 4-- 6---- 6 4---- 2 4|------ 8------ 9------13------ 4|
D| 2-- 2---- 2-- 4---- 4 4---- 2 4|-------------- 9------13------ 6|
A|------------------------ 2-- 4 6|------ 9------11------12--------|
E| 2------ 4-- 4 6----------------|------------------------------ 7|
Classical Guitar Tablature http://classicalguitartablature.blogspot.com/
E|------------------------------ 2|--------------------------------|
B|---- 5---- 5-- 5---- 5---- 5-- 2|---- 5-- 4-- 2------------------|
G|---- 4---- 6-- 5---- 5---- 4-- 2|---- 2-- 2-- 2-- 4------ 4------|
D|---- 6---- 6-- 4---- 4---- 4----|---- 2-- 2-- 2-- 4------ 3------|
A|--------------------------------|---------------- 6------ 5------|
E|-------- 6-- 6-- 5---- 4---- 4--| 2------ 0----------------------|
Classical Guitar Tablature http://classicalguitartablature.blogspot.com/
E|------------------------------ 4|---- 4--------------------------|
B| 5-- 5-- 5------ 5-- 5-- 5---- 5|---- 5 5---- 5 7---- 7 4-- 4-- 5|
G| 4-- 4-- 2------ 4-- 4-- 6---- 5|---- 5 5---- 5 4---- 4 3---- 3 2|
D| 2-- 2-- 4------ 6-- 6-- 4------|------ 4---- 4 4---- 4 2---- 2 2|
A| 4------ 3----------------------|------ 5------------------------|
E|---------------- 7------ 6---- 5|-------------- 4------ 3------ 2|
Classical Guitar Tablature http://classicalguitartablature.blogspot.com/
E|---------------- 0---------- 0--|--------------------------------|
B|---------------- 0------------ 2|--------------------------------|
G|-------------- 2-------------- 1|--------------------------------|
D|-------------- 3----------------| 2------------------------------|
A|-------------- 3----------------| 2------------------------------|
E|-------------- 1----------------|-- 0----------------------------|
Classical Guitar Tablature http://classicalguitartablature.blogspot.com/
0 com

Yesterday

Beatles classic solo guitar arrangement played in the key of C.

Yesterday played in the key of C.
Classical Guitar Tablature http://classicalguitartablature.blogspot.com/
E|--------------------------------|---------------------- 7-- 8----|
B| 3-- 1-- 1---------- 1----------|-------- 5-- 7-- 9--10-- 7-- 8--|
G| 0-- 0-- 0------ 0--------------|-------- 7-- 7-- 7-- 7-- 7-- 7--|
D| 2---------- 2------------------|---- 7------ 7-- 9-- 9----------|
A| 3---------------------- 0------|---------------- 7--------------|
E|---------------------------- 6--| 7-------------------------- 6--|
Classical Guitar Tablature http://classicalguitartablature.blogspot.com/
E| 7---- 5---- 5------------------|------ 5-- 5---- 3--------------|
B| 5---- 5-- 5-------------- 5----|------ 1-- 1---- 3-- 6-- 5 3----|
G| 5 5------ 5---------- 5--------|-- 2-- 2-- 2-- 4---- 4-- 5-- 5--|
D|------------------ 5------------|-------------------- 3-- 3-- 3--|
A|--------------------------------|--------------------------------|
E| 5------------ 3----------------| 1------------ 3-------- 5------|
Classical Guitar Tablature http://classicalguitartablature.blogspot.com/
E|--------------------------------|------ 0------------------------|
B| 6---- 5---- 5------ 5-- 3------| 1---------- 3------------------|
G| 4---- 4---- 4------ 2-- 1------| 2---------- 2---------- 2------|
D| 5-- 5 5---- 5------ 3-- 2------|---- 2-------------- 2----------|
A| 3-------------- 2--------------| 0------------------------------|
E|------------------------ 0------|------------ 2------------------|
Classical Guitar Tablature http://classicalguitartablature.blogspot.com/
E|-------- 0-- 0------------------|--------------------------------|
B| 1------ 1-- 1---------- 1------| 3-- 1-- 1----------------------|
G| 2-------- 0 0---------- 2------| 0-- 0-- 0----------------------|
D| 3-- 3-------------- 2-- 3------| 2-- 2-- 2----------------------|
A|--------------------------------| 3---------------------- 0------|
E| 1-------- 0 0---------- 3---- 1|------------ 0-- 1-- 3------ 6--|
Classical Guitar Tablature http://classicalguitartablature.blogspot.com/
E|---------------------- 7-- 8----| 7------ 5-- 5------------------|
B|------ 5-- 7-- 9--10-- 7-- 8----| 5------ 5-- 5-------- 5-- 5----|
G|------ 7-- 7-- 7-- 7-- 7-- 7----| 5 5---- 5-- 5---- 5------ 3----|
D|---- 7 7-- 7-- 9-- 9------------|-------------------------- 2----|
A|-------------- 7----------------|------------------------------ 8|
E| 7---------------------- 7-- 6--| 5-------------- 3---------- 2--|
Classical Guitar Tablature http://classicalguitartablature.blogspot.com/
E|------ 5-- 5---- 3--------------|-------- 3----------------------|
B|-------- 5-- 5-- 5-- 6-- 5------| 6-------- 5 5---------- 3------|
G|-------- 5-- 5-- 4-- 5-- 7-- 7--| 4---------- 2---- 2---- 1------|
D|---- 7------ 4------ 3-- 5-- 5--| 5-- 5---------- 3------ 3------|
A|--------------------------------| 3---------- 2---------- 1------|
E|---------------- 3-- 5-- 6-- 7--|--------------------------------|
Classical Guitar Tablature http://classicalguitartablature.blogspot.com/
E|--------------------------------|--------------------------------|
B|-------- 5-- 3---------------- 1|-------- 5-- 5-------- 5------ 5|
G| 5------ 6-- 5-------------- 2--| 2-- 2-- 5-- 5---- 7---------- 7|
D| 5------ 5-- 4-------------- 2--| 2------ 6-- 5---- 5---------- 7|
A|---- 7-- 6-- 5------------------|--------------------------------|
E| 5------------------ 4-- 3-- 2--| 1------ 6-- 8------------------|
Classical Guitar Tablature http://classicalguitartablature.blogspot.com/
E|------------------------------ 5|------ 7------ 8-------- 7-- 5--|
B|-------------- 5-------------- 5|------ 5-------- 5------ 5-- 5--|
G|-------- 4---- 4----------------|-- 5-------- 5------ 5-- 5-- 5--|
D|-- 7---- 3 3---- 2 2------------|-------- 6------ 5------ 4------|
A|--------------------------------|--------------------------------|
E| 7------ 5------ 4------ 0------| 5------------------------------|
Classical Guitar Tablature http://classicalguitartablature.blogspot.com/
E| 7---------------------- 5------|--------------------------------|
B|10------10--10 8-------- 5------| 5-------- 5-- 6------ 7-- 7----|
G|---- 9------ 7-- 5------ 4-- 4--| 4---- 4-- 3-- 5------ 5-- 5----|
D|------------ 9-- 7-- 7----------|---- 5---- 5---- 3 3-- 7-- 7-- 9|
A| 8---------- 7-- 5------ 4------| 3---------- 4-- 5---- 6-- 7-- 8|
E|--------------------------------|--------------------------------|
Classical Guitar Tablature http://classicalguitartablature.blogspot.com/
E|--------------------------------| 5------ 7---- 8------ 7------ 7|
B| 5------ 5------ 5------ 5------| 5------ 8----10----1010--10-- 6|
G| 7------ 4-- 4-- 7------ 5------| 5-- 5-- 7---- 9---- 9 9---- 9--|
D|---- 9-- 3------ 6-- 6-- 4-- 4--|------------ 710----10------ 7--|
A|------ 5------------------------|------------------------------ 5|
E|-------------- 6-------- 4------| 5------ 7------ 8------ 9------|
Classical Guitar Tablature http://classicalguitartablature.blogspot.com/
E|------ 5---------------- 7---- 8|-------- 3----------------------|
B|------ 7------ 8--------10----10|-------- 3------ 6------ 5------|
G|-- 5-- 5-- 5-- 5------ 9------ 9|-------- 4------ 5------ 7------|
D|-------------- 5-- 5------------|---------------- 3------ 5------|
A|------ 6-------- 7---- 8--------| 9------------------------------|
E|--------------------------------|-------- 3------ 5------ 7------|
Classical Guitar Tablature http://classicalguitartablature.blogspot.com/
E|--------------------------------|---------------------- 7-- 8----|
B| 3-- 1-- 1----------------------|------ 5-- 7-- 9--10-- 7-- 8----|
G| 0-- 0-- 0----------------------|------ 7-- 7-- 7-- 7-- 7-- 7----|
D| 2-- 2-- 2----------------------|---- 7 7-- 7-- 9-- 9------------|
A| 3---------------------- 0------|-------------- 7----------------|
E|------------ 0-- 1-- 3------ 6--| 7---------------------- 7-- 6--|
Classical Guitar Tablature http://classicalguitartablature.blogspot.com/
E| 7------ 5-- 5------------------|------ 5-- 5---- 3--------------|
B| 5------ 5-- 5-------- 5-- 5----|-------- 5-- 5-- 5-- 6-- 5------|
G| 5 5---- 5-- 5---- 5------ 3----|-------- 5-- 5-- 4-- 5-- 7-- 7--|
D|-------------------------- 2----|---- 7------ 4------ 3-- 5-- 5--|
A|------------------------------ 8|--------------------------------|
E| 5-------------- 3---------- 2--|---------------- 3-- 5-- 6-- 7--|
Classical Guitar Tablature http://classicalguitartablature.blogspot.com/
E|-------- 3----------------------|--------------------------------|
B| 6-------- 5 5---------- 3------|-------- 5-- 3---------------- 1|
G| 4---------- 2---- 2---- 1------| 5------ 6-- 5-------------- 2--|
D| 5-- 5---------- 3------ 3------| 5------ 5-- 4-------------- 2--|
A| 3---------- 2---------- 1------|---- 7-- 6-- 5------------------|
E|--------------------------------| 5------------------ 4-- 3-- 2--|
Classical Guitar Tablature http://classicalguitartablature.blogspot.com/
E|--------------------------------|--------------------------------|
B|-------- 5-- 5-------- 5--------|-------- 5-- 3------ 3----------|
G| 2-- 2-- 5-- 5---- 7------------| 5------ 4-- 2------ 2-- 2------|
D| 2------ 6-- 5---- 5------------| 5------ 3-- 2------ 2-- 2------|
A|--------------------------------|--------------------------------|
E| 1------ 6-- 8------------------| 5------ 4-- 3---------- 2------|
Classical Guitar Tablature http://classicalguitartablature.blogspot.com/
E|---------- 0--------------------|--------------------------------|
B| 1-------- 1-------------- 5----|--------------------------------|
G| 2-------- 1-------------- 4----|--------------------------------|
D| 2---------------------- 2------|--------------------------------|
A|---------- 1------------ 3------|--------------------------------|
E| 1------------------------------|--------------------------------|
Classical Guitar Tablature http://classicalguitartablature.blogspot.com/
E|--------------------------------|--------------------------------|
B|--------------------------------|--------------------------------|
G|--------------------------------|--------------------------------|
D|--------------------------------|--------------------------------|
A|--------------------------------|--------------------------------|
E|--------------------------------|--------------------------------|
Classical Guitar Tablature http://classicalguitartablature.blogspot.com/
0 com

What A Wonderful World

Classic ballad chord melody guitar arrangement played in the key of D.

What A Wonderful World played in the key of D.
Classical Guitar Tablature http://classicalguitartablature.blogspot.com/
E|--------------------------------|--------------------------------|
B|-------- 3-------------- 3------|------ 3------------------------|
G|---- 2---- 2-------- 3---- 3----|---- 4---- 4-------- 2 2---- 2--|
D|-- 4-------- 4---- 2-------- 2--|-- 4-------- 4---- 2-- 2---- 2--|
A| 5------------------------------|-------------- 0----------------|
E|---------------- 2------------ 3| 3------------------------------|
Classical Guitar Tablature http://classicalguitartablature.blogspot.com/
E|---------------- 5------ 5------|-------- 7 7 7-- 5------ 5------|
B| 3------ 3---------- 2------ 2--|-------- 3 3 3-- 2-- 2------ 2--|
G| 2-- 2------ 2---- 2------ 2----|-- 4---- 4 4 4-- 2 2------ 2----|
D|-- 4------ 4--------------------|--------------------------------|
A| 5------------------------------|--------------------------------|
E|---------------- 2------------ 3| 3-------------- 2--------------|
Classical Guitar Tablature http://classicalguitartablature.blogspot.com/
Classical Guitar Tablature http://classicalguitartablature.blogspot.com/
E|---- 3 3-- 3-- 2----------------|--------------------------------|
B|---- 0 0-- 0 0 2------ 2------ 5|------ 5------ 3-------- 3---- 3|
G|-- 0---------------- 2------ 2--| 4-- 4 3---- 3 2---- 2------ 3 2|
D|------------------ 4------ 4----|-- 5------ 2------ 4------ 4-- 3|
A|-------------- 5----------------| 4-------------- 2--------------|
E| 0------------------------------|------ 2------------------------|
Classical Guitar Tablature http://classicalguitartablature.blogspot.com/
E|--------------------------------|--------------------------------|
B|---- 3---- 3-- 3----------------|---- 3---- 3-- 2---- 3---- 5----|
G|---- 2---- 2-- 2---- 2---- 2----|---- 0-- 2 2-- 4---- 4---- 4----|
D|------------ 3 3---- 3---- 3----|---- 0-- 2 2---- 4-- 4---- 5----|
A| 1---- 0 0----------------------|--------------------------------|
E|---------------- 3------ 1-- 1--| 0------ 2-- 2-- 3---- 4-- 5----|
Classical Guitar Tablature http://classicalguitartablature.blogspot.com/
E| 2-------- 2--------------------|--------------------------------|
B| 2---------- 2---------- 3------|--------------------------------|
G| 2-- 2------ 2------ 3---- 3----|---- 4------ 4------ 2-- 2-- 2--|
D|------------------ 2-------- 2--|-- 4------ 4-------- 2-- 2-- 2--|
A| 5------------------------------|---------------------------- 4--|
E|---------------- 2--------------| 3------ 4------ 5--------------|
Classical Guitar Tablature http://classicalguitartablature.blogspot.com/
E|---------------- 5-- 5----------| 7-- 7---- 7 7------------------|
B| 3-- 3 3-------- 2-- 2----------| 3-- 3---- 5 8--10--10-------- 8|
G| 2-- 2 0---- 1------ 2---- 6 5--| 4-- 4---- 6 7-- 9-- 9---- 9-- 7|
D| 4---- 0---- 0------------ 4 4--|---------------- 7-- 7------ 7 5|
A| 5------------------------------|--------------------------------|
E|-------- 0-- 1-- 2------ 5-- 4--| 3------ 5-- 7-- 9---- 8--------|
Classical Guitar Tablature http://classicalguitartablature.blogspot.com/
E|--------------------------------|--------------------------------|
B|---- 8---- 8---- 7-- 7----------| 5-- 5-- 5-- 5-- 3-- 5-- 7------|
G|---- 7---- 7---- 6-- 6---- 4----| 4-- 4-- 3-- 3-- 2-- 3-- 4-- 4--|
D|---- 5------ 5-- 7-- 7---- 4----| 5-- 3-- 2-- 5---- 4 5 7-- 7----|
A|--------------------------------| 4---------- 3-- 2-- 4-- 5------|
E| 7------ 6------ 5------ 4-- 4--|---- 3-- 2----------------------|
Classical Guitar Tablature http://classicalguitartablature.blogspot.com/
E|--------------------------------|--------------------------------|
B|--------------------------------|---- 3 3---- 3 2---- 3---- 5-- 3|
G| 7-- 7-- 7-- 7---- 7------ 7----|---- 4 3---- 2 1---- 0---- 6-- 2|
D| 7------ 7-- 7------ 7------ 7--|-- 4-- 2---- 2 0---- 0---- 5-- 4|
A| 8-- 7--------------------------|-------------------------- 6-- 5|
E|--------10---- 8 6------ 5------| 4---- 3 3-- 2-- 1-- 0----------|
Classical Guitar Tablature http://classicalguitartablature.blogspot.com/
E|--------------------------------|--------------------------------|
B|---- 3------ 3---------- 3------|------ 2------------ 3---- 3-- 5|
G|---------- 2-------- 3---- 3----|------ 2------------ 2---- 2-- 0|
D|------ 4---------- 2-------- 2--|---- 2---- 2-------- 1---- 1----|
A|--------------------------------|--------------------------------|
E|-------------- 3-------------- 2|------------ 2 1-------- 1-- 1 0|
Classical Guitar Tablature http://classicalguitartablature.blogspot.com/
E|--------------------------------| 3-- 2---- 2 0 2---- 2----------|
B|---- 5---- 5-- 5---- 5----------| 3-- 3---- 3-- 2---- 2---- 3----|
G|---- 0---- 2-- 4---- 4------ 4--| 3-- 4---- 4-- 2---- 2---- 2----|
D|---- 0---- 2-- 5---------- 5----|-------------------------- 1----|
A|--------------------------------| 5------------------------------|
E|------ 2 2-- 2-- 3------ 5------|------ 4-- 3-- 2-------- 1-- 1--|
Classical Guitar Tablature http://classicalguitartablature.blogspot.com/
E|--------------------------------|------ 2-------------- 5--------|
B| 5-- 5---- 5-- 5---- 5------ 4--| 8-- 7-- 5-- 5 7------ 7---- 7--|
G| 7-- 7---- 4-- 2---- 2------ 5--| 7-- 6-- 2-- 2 6---- 6 7-- 7----|
D| 5-- 5------ 5 2---- 2------ 6--| 8-- 7------ 4---- 5------------|
A| 7---- 5-------- 4------ 2------| 6-- 5-- 4-- 2------------------|
E|---------------------------- 6--|-------------- 6------ 5--------|
Classical Guitar Tablature http://classicalguitartablature.blogspot.com/
E| 7---- 7------------------------|-------------- 5------ 5--------|
B| 7-- 7--------10------10---- 7--|12----12---- 7 5------ 5---- 712|
G| 7----------11 9---- 9 9---- 7--|11--1111---- 7 6---- 6------ 711|
D|------------ 9---- 7-------- 7--| 9 9-------- 7---- 7-------- 712|
A|--------------------------------|------------ 9 7------------ 912|
E| 7----------10 9------------ 7--|10------------------------------|
Classical Guitar Tablature http://classicalguitartablature.blogspot.com/
E|------ 7------------------------|--------------------------------|
B|------ 7------10----------------| 8------ 7---- 5----------------|
G|----11-- 7-- 7 8---- 8------ 5--| 7-- 7-- 5-- 5------ 4-- 2-- 2--|
D|--12------ 7------10------ 7----|-- 9-- 7-- 7------ 5---- 2-- 2--|
A|-------- 9---- 9-------- 6------| 7------ 6------ 5--------------|
E|--------------------------------|------------------------ 5------|
Classical Guitar Tablature http://classicalguitartablature.blogspot.com/
E|---------------- 5-- 5----------| 7-- 7---- 7 7------------------|
B| 3-- 3 3-------- 2-- 2----------| 3-- 3---- 5 8--10--10-------- 8|
G| 2-- 2 0---- 1------ 2---- 6 5--| 4-- 4---- 6 7-- 9-- 9---- 9-- 7|
D| 4---- 0---- 0------------ 4 4--|---------------- 7-- 7------ 7 5|
A| 5------------------------------|--------------------------------|
E|-------- 0-- 1-- 2------ 5-- 4--| 3------ 5-- 7-- 9---- 8--------|
Classical Guitar Tablature http://classicalguitartablature.blogspot.com/
E|--------------------------------|--------------------------------|
B|---- 8---- 8---- 7-- 7----------| 5-- 5-- 5-- 5-- 3-- 5-- 7------|
G|---- 7---- 7---- 6-- 6---- 4----| 4-- 4-- 3-- 3-- 2-- 3-- 4-- 4--|
D|---- 5------ 5-- 7-- 7---- 4----| 5-- 3-- 2-- 5---- 4 5 7-- 7----|
A|--------------------------------| 4---------- 3-- 2-- 4-- 5------|
E| 7------ 6------ 5------ 4-- 4--|---- 3-- 2----------------------|
Classical Guitar Tablature http://classicalguitartablature.blogspot.com/
E|--------------------------------|--------------------------------|
B|--------------------------------|---- 3 3---- 3 2---- 3---- 5-- 3|
G| 7-- 7-- 7-- 7---- 7------ 7----|---- 4 3---- 2 1---- 0---- 6-- 2|
D| 7------ 7-- 7------ 7------ 7--|-- 4-- 2---- 2 0---- 0---- 5-- 4|
A| 8-- 7--------------------------|-------------------------- 6-- 5|
E|--------10---- 8 6------ 5------| 4---- 3 3-- 2-- 1-- 0----------|
Classical Guitar Tablature http://classicalguitartablature.blogspot.com/
E|--------------------------------|--------------------------------|
B|---- 3---- 3-- 2---- 5------ 5--|---- 1------ 3------------ 3 3--|
G|---- 2---- 2-------- 2------ 5--|---- 2------ 3---- 2------ 2 2--|
D|------ 4---- 4---- 4------ 4----|-- 2------ 2-------- 1-- 1-- 1--|
A|-------------- 3----------------|-------- 3------ 2---- 0--------|
E|------------------------ 5---- 2|------ 2---------------- 1------|
Classical Guitar Tablature http://classicalguitartablature.blogspot.com/
E| 2------------------------------|--------------------------------|
B| 0---- 3-- 5---- 3-------- 3----|---- 3-------------------- 5----|
G| 0---- 2-- 4---- 4------ 4------|---- 4-- 7-- 7 6---- 7---- 6----|
D|------ 2-- 5---- 4-- 4------ 4--|---- 5-- 5-- 7 7---- 6---- 5----|
A|--------------------------------|-------------- 8---- 7---- 6-- 5|
E| 0---- 2-- 3---- 4--------------| 5------ 6-- 7------------------|
Classical Guitar Tablature http://classicalguitartablature.blogspot.com/
E|--------------------------------|--------------------------------|
B| 3------------------------------|--------------------------------|
G| 4------------------------------|--------------------------------|
D| 4------------------------------|--------------------------------|
A|--------------------------------|--------------------------------|
E|--------------------------------|--------------------------------|