To celebrate the anniversary, I am giving you (finally...) : iPhone LickByNeck !!!!!!

12 Days Of Christmas


12 Days Of Christmas played in the key of E.
ClassicalGuitarTablature http://classicalguitartablature.blogspot.com/
E|--------------------------------|------ 0-- 0--------------------|
B|------------ 5---------------- 0|-------------- 5------ 4-- 5-- 7|
G|-------- 6------------ 4-- 4-- 1|-------------- 5------ 5-- 5-- 6|
D|---- 7-- 7-------- 7------------|-------------- 4-- 4---------- 4|
A|-------------- 6----------------|--------------------------------|
E| 7---------------------------- 0|-------------- 4-------------- 5|
ClassicalGuitarTablature http://classicalguitartablature.blogspot.com/
E|-- 4----------------------------|--------------------------------|
B|--------10-- 7-- 9---------- 9--|------------ 9---------- 910----|
G|-------- 8-- 8-- 8---- 8--------|-------- 9--------------1111----|
D|-------- 7-- 7---- 6------------|---- 9------------ 9------------|
A|--------------------------------|--------------------------------|
E|-------- 7------ 8--------------| 9--------------11--------------|
ClassicalGuitarTablature http://classicalguitartablature.blogspot.com/
ClassicalGuitarTablature http://classicalguitartablature.blogspot.com/
E| 7------------ 9-------------- 4|--------------------------------|
B| 9---------- 9 7------10------ 5|-------- 5------ 7---- 4------ 5|
G|------ 9------ 7------ 7--------| 4------ 4------ 6---- 6--------|
D|-- 9-------------- 7------ 7----|-- 4------ 4-------- 7------ 7--|
A|--------------------------------|--------------------------------|
E| 0------------ 0----------------| 5-------------- 7------ 7------|
ClassicalGuitarTablature http://classicalguitartablature.blogspot.com/
E|--------------------------------|--------------------------------|
B|------------ 5------------------|------ 5-- 5-- 5------ 4-- 5----|
G| 4------ 4------------ 4-- 4----| 4---- 5-- 5-- 4------ 2------ 9|
D|---- 2-------------- 7----------|-- 6-------- 4------ 2 4------ 7|
A| 4-------------- 6--------------|-------- 5---- 4------ 3--------|
E|--------------------------------| 0---------------------------- 7|
ClassicalGuitarTablature http://classicalguitartablature.blogspot.com/
E|------ 5------ 4------------ 5--|---------------- 5------ 7------|
B| 7-- 9 4---- 7 5------------ 6--|12------ 7-- 9-- 7-- 7-- 7------|
G|-------- 4------ 4---------- 4--| 9------ 7------ 6------ 6------|
D|-------------------- 4----------|----11-- 9------------------ 7--|
A|--------------------------------| 9------ 8------ 7------ 6------|
E|------ 5-------- 4------ 3------|--------------------------------|
ClassicalGuitarTablature http://classicalguitartablature.blogspot.com/
E|---- 4 5------ 7------------ 4--| 5------ 7------ 2-- 4-------- 7|
B| 7------ 7 7--10-------- 7-- 5--| 7-- 7-- 5------ 5-- 4--10 7--10|
G| 4------ 6---- 9------ 9---- 6 5|---- 5-- 4------ 4-- 2-- 7------|
D| 6------------------ 7-- 7------|---- 7------ 6---------- 9------|
A| 5------ 4----------------------|------------------------ 8------|
E|-------------- 8-------- 7-- 6--| 5------ 4------ 3-- 2----------|
ClassicalGuitarTablature http://classicalguitartablature.blogspot.com/
E|---------- 4-- 5------ 7--------|-------- 5------ 7---------- 4--|
B|------ 7------ 7---- 710------ 7|---- 9-- 7-- 7-- 7------ 7------|
G|-- 9-- 4---------- 6---- 9---- 8|-------- 6-- 6-- 6------ 6------|
D|------ 7------------ 7---- 7----| 7---------- 7------ 6-- 4------|
A| 7------ 6---- 5----------------|--------------------------------|
E|------------------------ 9------| 8------ 7------ 6------ 5------|
ClassicalGuitarTablature http://classicalguitartablature.blogspot.com/
E| 5-- 2------------------ 9------| 6------ 7----------------------|
B| 5-- 5--12------------ 7--------| 7------10----------------------|
G| 4-- 4-- 9----------10------ 6--| 9------ 8------------------11--|
D|------------11------12----------|---- 8------ 7---- 7-------- 9--|
A|-------- 9------11--------------|--------------------------------|
E| 4-- 3------------------ 5------| 6------ 7------ 9----11--------|
ClassicalGuitarTablature http://classicalguitartablature.blogspot.com/
E| 7------ 4----------------------|--------------------------------|
B| 9--10-- 4-- 7-- 5----10--------|-------- 5------ 7-- 5 4--------|
G| 8------ 4------ 4---- 9------ 6|-------- 6------ 6-- 6 4---- 6--|
D|-------------------- 6------ 7--|---- 6------ 6-- 7-- 7 4--------|
A| 7------ 6------ 4--------------|--------------------------------|
E|---------------------- 8------ 7|-------- 6------ 5------ 4------|
ClassicalGuitarTablature http://classicalguitartablature.blogspot.com/
E|------ 4-- 5-- 7-------- 9------|--------------------------------|
B|------ 2---- 3--10------10--10--| 9---- 7-------- 5--------------|
G| 4---- 2---- 2-- 7------11--11--| 9-- 9 8---- 8-- 2------ 4-- 4--|
D|---- 2-------------- 7------11--|10---- 7------------ 4-- 6------|
A|--------------------------------|---------------- 3------ 5------|
E| 3---- 2---- 1-- 0------11------|10------ 9----------------------|
ClassicalGuitarTablature http://classicalguitartablature.blogspot.com/
E|--------------------------------|-- 4-- 5---------- 4-------- 5--|
B|-------- 5-- 5-- 5---- 4---- 5--| 7---- 7---- 7-- 2---------- 3--|
G| 4------ 4-- 4-- 6---- 6--------| 6------ 6-- 6-- 2---------- 2--|
D|---- 2-- 5-- 5-- 6 6-- 6--------| 4---------- 4------ 2----------|
A| 4------ 3----------------------|--------------------------------|
E|---------------- 7---- 6--------| 5------ 4------ 2------ 1------|
ClassicalGuitarTablature http://classicalguitartablature.blogspot.com/
E| 7------------ 9-------------- 4|--------------------------------|
B| 9---------- 9 7------10------ 5|-------- 5------ 7---- 4------ 5|
G|------ 9------ 7------ 7--------| 4------ 4------ 6---- 6--------|
D|-- 9-------------- 7------ 7----|-- 4------ 4-------- 7------ 7--|
A|--------------------------------|--------------------------------|
E| 0------------ 0----------------| 5-------------- 7------ 7------|
ClassicalGuitarTablature http://classicalguitartablature.blogspot.com/
E|--------------------------------|---- 0--------------------------|
B|------------ 5-- 5------ 5------|---- 0--------------------------|
G| 4------ 4------ 5------ 6------|-- 1----------------------------|
D|---- 2-------------- 4------ 5--| 4------------------------------|
A| 4-------------- 5------ 6------| 2------------------------------|
E|--------------------------------| 0------------------------------|
ClassicalGuitarTablature http://classicalguitartablature.blogspot.com/
E|--------------------------------|--------------------------------|
B|--------------------------------|--------------------------------|
G|--------------------------------|--------------------------------|
D|--------------------------------|--------------------------------|
A|--------------------------------|--------------------------------|
E|--------------------------------|--------------------------------|
ClassicalGuitarTablature http://classicalguitartablature.blogspot.com/

0 ความคิดเห็น:

แสดงความคิดเห็น