To celebrate the anniversary, I am giving you (finally...) : iPhone LickByNeck !!!!!!

Auld Lang Syne

Well done, 2006!
http://classicalguitartablature.blogspot.com/
http://classicalguitartablature.blogspot.com/
Auld Lang Syne played in the key of C.
ClassicalGuitarTablature http://classicalguitartablature.blogspot.com/
E|--------------------------------|--------------------------------|
B|------------------------------ 1|-------- 0------------ 5--------|
G|---------------------- 0--------|------ 0-- 5-- 5------ 5--------|
D|--------------------------------|---- 2---- 5-- 5------ 5--------|
A|------------------------------ 3|---------- 5---- 7--------------|
E|--------------------------------|------------------ 8-- 5---- 4--|
ClassicalGuitarTablature http://classicalguitartablature.blogspot.com/
E|--------------------------------|------------------------ 3------|
B| 3-------------- 3------ 5------|---------------- 5------ 2------|
G| 4------ 5------ 5------ 5-- 7--| 5------ 5------ 5---- 3-- 3----|
D|---- 5---- 3-------- 3-- 5-- 5--| 5-- 5-- 5-- 5 4-- 4---------- 7|
A|--------------------------------|------------------------------ 8|
E| 3------ 5------ 4------ 6-- 7--| 8------ 6---- 4------ 2--------|
ClassicalGuitarTablature http://classicalguitartablature.blogspot.com/
E| 5---------------------- 5------| 3---- 3------ 0----------------|
B| 5---------------------- 5------| 5-------- 5-- 1------ 1--------|
G| 5---------------- 5---------- 5|-- 5---------- 2-- 2------------|
D|--------------------------------|------------------------------ 0|
A|---- 7-- 5----------------------|--------------------------------|
E|------------ 8-- 5------------ 3|-------------- 2-------------- 1|
ClassicalGuitarTablature http://classicalguitartablature.blogspot.com/
E|--------------------------------|--------------------------------|
B| 3------ 1------ 3------ 5 3-- 1|---- 0------------------------ 1|
G| 2------ 2------ 2------ 4---- 2|------ 2-------- 2------ 0---- 1|
D|---- 0------ 0 3-- 3-- 3------ 2|---- 2---- 2-- 2---- 2---- 0-- 1|
A|-------------- 2-------------- 0|--------------------------------|
E|---------------------- 4--------|------ 3------ 2-------- 3------|
ClassicalGuitarTablature http://classicalguitartablature.blogspot.com/
E|------------------------ 5------|--------------------------------|
B|---------------- 1--------------| 8-------- 5-- 5-------------- 3|
G|-------- 2------ 1--------------| 5---- 5------ 5------ 5------ 5|
D|---- 1-- 1 1---- 1------------ 5|-- 5-------------- 5------ 5----|
A| 1------ 2------ 4--------------|--------------------------------|
E|------------------------------ 8|-------------- 6-------------- 5|
ClassicalGuitarTablature http://classicalguitartablature.blogspot.com/
E|---------------------- 5--------| 3------------------------------|
B|-------------- 3----------------| 3------ 3-- 5-- 5------ 8------|
G|------ 5------ 5----------------|-------- 3-- 4-- 3------ 5------|
D|-- 3------ 3-- 3---- 3----------|---- 3------ 3-- 5-- 5-- 8-- 8--|
A|--------------------------------|------------ 4-- 3------ 7---- 8|
E|-------------- 4----------------| 3------------------------------|
ClassicalGuitarTablature http://classicalguitartablature.blogspot.com/
E|--------------------------------|--------------------------------|
B|10------10------13------10------| 8------ 5------ 5--------------|
G| 9------ 9--10--11------ 8------| 9------ 5-- 5-- 5------ 5------|
D|10--10------10--13--13--10----10|--10-- 7---- 7 7---- 7------ 5--|
A|------------1212-------- 9----10|------ 9------ 8------ 8 7------|
E|--------------------------------|--------------------------------|
ClassicalGuitarTablature http://classicalguitartablature.blogspot.com/
E|------------------------ 0------|--------------------------------|
B| 3------ 1------ 3------ 3 3----| 1---- 0------------------------|
G| 5-- 5-- 2-- 2-- 2---- 0--------| 2------ 2------ 2------ 0------|
D| 3------ 2------ 3-- 3----------|-- 2-------- 2------ 2---- 0----|
A| 5---- 5 3---- 2------ 1--------| 0------------------------------|
E|--------------------------------|-------- 3------ 2------ 1------|
ClassicalGuitarTablature http://classicalguitartablature.blogspot.com/
E|----------------12------10------| 8------ 5------ 5--------------|
B| 1---------- 1--10------10------| 6------ 6------ 6------ 8------|
G|-------- 0------ 9------ 8------| 7-- 7-- 5-- 5-- 5-- 5------ 7--|
D|---- 2------------------ 7---- 6|------ 7------ 8-------- 9------|
A|-------------- 9----------------|--------------------------------|
E| 0-------------------- 7--------|--------------------------------|
ClassicalGuitarTablature http://classicalguitartablature.blogspot.com/
E| 8---------- 8------------------|--------------------------------|
B| 8------ 8----------------------|--------------------------------|
G| 7-- 7--------------------------|--------------------------------|
D|10------------------------------|--------------------------------|
A|--------------------------------|--------------------------------|
E|---------------- 8--------------|--------------------------------|

0 ความคิดเห็น:

แสดงความคิดเห็น