To celebrate the anniversary, I am giving you (finally...) : iPhone LickByNeck !!!!!!

Bohemian Rhapsody

Amazing rendition of Queen's classic by Carlifornia Guitar Trio adapted to solo guitar

http://classicalguitartablature.blogspot.com/
Bohemian Rhapsody solo guitar arrangement

ClassicalGuitarTablature http://classicalguitartablature.blogspot.com/
E|---- 6-- 6---- 4-- 6-------- 6--|------------ 6---- 6-- 6---- 6--|
B|---- 8-- 8---- 8-- 8-------- 8--|------------ 8---- 8-- 8---- 8--|
G|----10--10----10--10--------10--|------------ 9---- 9--10---- 9--|
D|----12--12----12--12--------12--|------------10----10--12----10--|
A|--------------------------------|--------------------------------|
E|--------------------------------|--------------------------------|
ClassicalGuitarTablature http://classicalguitartablature.blogspot.com/
E| 3------------------------------|--------------------------------|
B| 6 8----------------10----10--10|----11------10------------------|
G| 7 9----------------10----10--10|----12------10------------------|
D| 8--10--------------13----13--13|----13------13------------------|
A|----13--------------15----15----|15--15------15-------- 8---- 8--|
E|--------------------------------|--------------------------------|
ClassicalGuitarTablature http://classicalguitartablature.blogspot.com/
E| 6-- 6---- 6-- 6-- 3------------|--------------------------------|
B|---------- 8-- 8-- 6---- 6------|-------------- 3---- 3-- 3---- 3|
G| 7-- 7---- 8-- 7-- 5---- 7------|-------------- 3-------- 3---- 3|
D| 8-- 8----10-- 8 7 7---- 8------|-------------- 5-------- 5------|
A| 8-- 8------------------ 8------|--------------------------------|
E|--------------------------------|-------------- 3----------------|
ClassicalGuitarTablature http://classicalguitartablature.blogspot.com/
E|--------------------------------|--------------------------------|
B|------------ 3-- 3--------------|---- 6---------------- 8--------|
G|-------- 3------ 3---- 7-- 7 8 8|-- 7 7----1919-------- 8--------|
D|-- 5---------------- 6---- 6--10|------------ 6-------- 8--------|
A|--------------------------------|-------------------- 6----------|
E|---------------- 3-- 6----------|--------------------------------|
ClassicalGuitarTablature http://classicalguitartablature.blogspot.com/
E|---------- 6------11--------11--|--------------------------------|
B|---- 8-------- 9-------- 8------|-- 8------ 8---- 8------ 8------|
G| 8------------ 8-------- 8------|-- 8------ 8---- 8------ 8------|
D|------------------------ 8------|-- 8------ 8---- 8------ 8------|
A|--------------------------------|------10--------10----------10--|
E|--------------------------------|-- 8----------------------------|
ClassicalGuitarTablature http://classicalguitartablature.blogspot.com/
E|--------------------------------|---------- 7---- 7-- 6------ 5--|
B| 8---- 6-- 6-- 7---- 6-------- 6|-- 6-- 8-- 7---- 7-- 6------ 5--|
G|-- 8-- 8------------ 8-- 8 5-- 5|-- 7-- 8-- 8---- 8-- 7------ 6--|
D|-- 8 7-------------- 7-------- 5|-- 6-- 8------------------------|
A|---- 8-------------- 8----------|--------------------------------|
E|--------------------------------|--------------------------------|
ClassicalGuitarTablature http://classicalguitartablature.blogspot.com/
E| 5-- 6--------------------------|--------------------------------|
B| 5-- 6--------12--12--11--------|10--10--11-------- 8---- 8-- 8--|
G| 6-- 7--------11--11--10--------| 9-- 9--10-------- 8---- 8-- 8--|
D|--------------13--13--12--------|11--11--12-------- 8---- 8-- 8--|
A|--------------------------------|----------19-------------- 910--|
E|--------------------------------|--------------------------------|
ClassicalGuitarTablature http://classicalguitartablature.blogspot.com/
E|--------------------------------|--------------------------------|
B| 8-- 6--------11--------11--11--|11--11----10----------------10--|
G| 8-- 7--------10-------- 9------| 9-- 9---- 8-------- 8----------|
D| 8-- 8--------12------ 8---- 8--|---- 8----10------------10------|
A|10-- 8--------10----------------|---------- 8--------------------|
E|---------------------- 9--------|--------------------------------|
ClassicalGuitarTablature http://classicalguitartablature.blogspot.com/
E|---------- 8----11--------------|--------------------------------|
B|----------------13--------------|------------------------ 8------|
G|-- 8-- 9--------14--------------|-------------------- 7----------|
D|--------------15---------- 7-- 8|------ 8-------- 8--------------|
A|--------------------------------|---------- 8------------------ 8|
E|--------------------------------|------ 6------------------------|
ClassicalGuitarTablature http://classicalguitartablature.blogspot.com/
E|--------------------------------|--------------------------------|
B|-- 6----------------------------| 8------ 6----------------------|
G|---------------------------- 7--|------------------ 7-- 7--------|
D|------------ 8-------- 8--------|------------------ 8---------- 8|
A|------ 8---------- 8------------|---- 8-------- 8-- 8---- 8------|
E|------------ 6------------------|------------------ 6------------|
ClassicalGuitarTablature http://classicalguitartablature.blogspot.com/
E|--------------------------------|------------ 5-------- 3--------|
B|------ 8-------- 6------------ 3| 3------ 3---------------- 3----|
G|-- 7---------------- 7---- 5-- 4|---- 3------------ 3------------|
D|-------------------- 8---- 5----|--------------------------------|
A|------------ 8-------- 8--------|--------------------------------|
E|-------------------------- 3----|--------------------------------|
ClassicalGuitarTablature http://classicalguitartablature.blogspot.com/
E|--------------------------------|--------------------------------|
B| 4-- 6-- 4 3---- 1---------- 1 3|---- 4-- 6---- 4 3----10--------|
G| 3-- 3-- 3------ 3---------- 3--|---- 3-- 3---- 3 3---------- 8--|
D| 5------------------ 1------ 1--|-- 5---- 5---- 5------10--------|
A| 3-------------- 3--------------|-- 3------------------ 8--------|
E|--------------------------------|--------------------------------|
ClassicalGuitarTablature http://classicalguitartablature.blogspot.com/
E|---- 8-- 0----------------------|---------------- 5------ 5 3----|
B|---------------------------- 8--|------------ 6-- 3------------ 3|
G|10-------- 7 7---------- 7------|------ 7-------- 3---- 3--------|
D|---------- 8-------- 8----------|---------------------- 5--------|
A|---------- 8---- 8--------------|-- 8---- 7----------------------|
E|---------- 6--------------------|---------------- 3--------------|
ClassicalGuitarTablature http://classicalguitartablature.blogspot.com/
E|---- 5------ 3-- 3--------------|-------- 6----------------------|
B|-- 3-------- 3------------11--11|--11---- 8-- 8---- 4 3 3---- 1--|
G|-------- 3------------ 8-- 8-- 8|-- 8---- 8-------- 3-------- 2--|
D|---------------------- 8-- 8-- 8|---- 8-- 9------ 5---------- 1--|
A|--------------------------------|---------------------------- 0--|
E|---------------------- 8--------|-------- 7------ 6--------------|
ClassicalGuitarTablature http://classicalguitartablature.blogspot.com/
E|---------- 3-------- 3------ 3--|--------------------------------|
B|-------------- 4-------- 4------|-- 8-- 9---- 8-------- 8--------|
G|---- 2-------- 5-------- 3------|-- 8-- 8-------------- 8-- 8----|
D| 1------------ 3-------- 5------|-- 8-- 8-------- 8-------- 8-- 3|
A|--------------------------------|-- 6-------------------------- 5|
E|-------------- 4-------- 3------|--------------------------------|

E|-- 3-- 4------------------10----|--------------------------------|
B| 6 6-- 3 8------------ 8-- 8----|---------- 8-- 9---- 8 8 8-- 6--|
G| 3------ 8-------- 8------ 8----|------ 8------10------------ 5--|
D|--------------10----------------|10---- 7------10------------ 5--|
A|--------------------------------|-------------- 8------------ 7--|
E|-------- 8----------------------|------ 8------------------------|
ClassicalGuitarTablature http://classicalguitartablature.blogspot.com/
E|--------------------------------|------------------ 6------------|
B| 6-------- 6------------ 6 6----|-- 7 8---- 8-- 9-- 9---- 9-- 8--|
G|-- 5-------1-------- 7-- 7-- 7--|-- 7 7---- 7-- 7-------- 8-- 8--|
D|-- 6------ 6------ 8 8-- 8-- 8--|-- 6 6---- 6-- 6-------- 8-- 8--|
A|-- 6------ 5------ 8 8----------|------------------------ 6------|
E|-------------------- 6-------- 6|-- 6-- 6------------------------|
ClassicalGuitarTablature http://classicalguitartablature.blogspot.com/
E|--------------------------------|--------------------------------|
B|------ 6 811--------11------ 8 8|--------------------------------|
G|----------10--------10--10---- 8|------------------ 4-- 6 4---- 6|
D| 8-------------- 8------------10|------------ 8---- 6-- 5 6---- 5|
A|--------------------------------|--10----10------ 6------------ 6|
E|----------10------------------ 8|---------------- 4--------------|
ClassicalGuitarTablature http://classicalguitartablature.blogspot.com/
E|------------ 3-- 5--------11----|----11------11----------11------|
B|------ 4------------1213--------|11------10---------- 9----------|
G| 4---- 3------------13----------|12------11----------10----------|
D| 6------------------13----------|13------10----------10----------|
A|---- 5--------------------------|--------------------------------|
E|--------------------------------|--------------------------------|
ClassicalGuitarTablature http://classicalguitartablature.blogspot.com/
E|--------------------------------|--------------------------------|
B|------------------ 8-------- 6--|------------------------ 8------|
G|-------------- 7----------------|-------------------- 7----------|
D|-------- 8----------------------|---------------- 8--------------|
A|---- 8------------------ 8------|-- 8------ 8------------------ 8|
E| 6------------------------------|------ 6------------------------|
ClassicalGuitarTablature http://classicalguitartablature.blogspot.com/
E|--------------------------------|--------------------------------|
B|-- 6------------------------ 6--| 8-------- 6------------ 3------|
G|-------------- 7 7---------- 7--| 8------------------ 5-------- 3|
D|-------------- 8------ 8--------|-------------- 8---- 5----------|
A|-------- 8-- 8---- 8------------|------ 8------------------------|
E|------------ 5------------------|-------------------- 3----------|
ClassicalGuitarTablature http://classicalguitartablature.blogspot.com/
E|-------- 5------ 3--------------|--------------------------------|
B|-- 3------------------ 3-- 4----| 5 4-- 3---- 0-- 1---- 1 3---- 4|
G|------------ 3------------ 3----|-- 3-------- 3-------- 3 3---- 3|
D|-------------------------- 5----|-- 5-------------- 1-- 1 1---- 5|
A|------------------------ 3------|---- 2------ 3---------------- 3|
E|--------------------------------|--------------------------------|
ClassicalGuitarTablature http://classicalguitartablature.blogspot.com/
E|--------------------------------| 8------------------------------|
B|---- 5-- 4 3------10------------|------ 6 6----------------------|
G|---- 3-- 3 3---------- 8--10----|---- 7 7------ 7-- 5---- 5 7----|
D|-------- 5--------10------------|---- 8-------- 8---- 8----------|
A|-------- 3-------- 8------------|---- 8---- 8---- 8---------- 6--|
E|--------------------------------|---- 6---------------------- 6--|
ClassicalGuitarTablature http://classicalguitartablature.blogspot.com/
E|---------- 5---- 3-- 3-------- 5|------ 3------------------------|
B|------ 6-- 3------ 3 3-------- 3|------ 3--------11----11--11--11|
G|-- 7------ 3-- 3----------------|-- 3------------ 8---- 8-- 8-- 8|
D|-- 8-------------------- 5------|---------- 0----10----10------10|
A|--------------------------------|---------------- 8--------------|
E|---------- 3--------------------|---------------- 8--------------|
ClassicalGuitarTablature http://classicalguitartablature.blogspot.com/
E|-- 6----------------------------|-------------- 3------ 3--------|
B|-- 8---- 8-- 4---- 3-- 1--------|---- 1-- 4-------- 4-------- 8--|
G|-- 8-------- 3-------- 2--------| 2---- 1 5-------- 3-------- 8--|
D|-- 9-------- 5------------ 1----|-------- 1-------- 5-------- 8--|
A|-- 8------------------ 0--------|-------------------------- 6----|
E|-- 7------ 6--------------------|-------- 4-------- 3------------|

E|---------------------------- 3 4|--------------------10-------- 8|
B| 8-- 8-------------- 8-- 6------|-- 8------------ 8-- 8-------- 8|
G| 8-- 8-------- 8---- 8-- 3------|-- 8------ 8-------------- 8----|
D|---------- 8-------- 8-- 3------|--10--10------------------------|
A|------------------------ 5------|--------------------------------|
E|--------------------------------|-- 8----------------------------|
ClassicalGuitarTablature http://classicalguitartablature.blogspot.com/
E|--------------------------------|--------------------------------|
B|-- 8-- 9---- 8 8 8-- 6-- 6 6----|-- 6-------- 6-- 6-- 6-- 8---- 8|
G|------10------1010-- 5-- 5 6 5--|-- 5------ 7---- 7-- 7-- 7---- 7|
D|------10------1010-- 5---- 6-- 6|-- 6-- 6---- 8-- 8-- 6 6------ 6|
A|------ 8------------ 7---- 6----| 5 5-------- 8------------------|
E|--------------------------------|------------ 6------------ 6-- 6|
ClassicalGuitarTablature http://classicalguitartablature.blogspot.com/
E|---------- 6------------ 3------|------------------ 8---- 8------|
B|-- 9-- 9-------- 4------ 4---- 6|--11-------------- 8---- 8------|
G|-- 7-- 7-------- 3--------------|--10------------12 8---- 8------|
D|-- 6-- 6-------2 5-- 5----------|-- 8----------------------------|
A|---------------- 6------ 6------|----------------13--------------|
E|------ 6------------------------|10--------10-------- 8------ 8--|
ClassicalGuitarTablature http://classicalguitartablature.blogspot.com/
E|1011 8----1011 8--101113--------|--------13151618--20------181615|
B| 8 8 8---- 8-- 8-- 8 813--------|------1313--------18-------- 0--|
G| 8 8-- 8-- 8 8---- 8 813--------|------1213--------17------------|
D|--------------------------------|------1013----------------------|
A|--------------------------------|------------------17------13--13|
E|-- 0-- 8---- 8 8-- 8--13--------|13--1112--12--------------------|
ClassicalGuitarTablature http://classicalguitartablature.blogspot.com/
E|1616--15------------------------|---- 5 3 6-------------- 3 4 6 8|
B|----18--1816151615--------------| 3 4 6------------ 3 4 6------ 8|
G|---- 0-------- 0 017-- 0---- 3 5| 5------------ 3 5------------ 8|
D|------------------------------ 4|---------------- 4--------------|
A|--13--13--13--13--13--13--13----| 6-- 6-- 6-- 5-- 5---- 5-- 5----|
E|--------------------------------|------------------------------ 8|
ClassicalGuitarTablature http://classicalguitartablature.blogspot.com/
E|------ 0--1011-- 8 91011 8-- 911|13--------------------------13--|
B|--------------------------------|13----13--12-------- 9------11--|
G|--------------------------------|--13--13--13--1012-- 8------13--|
D|----------------10------10 8----|------15--15--1010--10------12--|
A|------1110 910--------------10 9|--------------------------------|
E|-- 8---------------- 8--------21|--13--13--13--1212--11------ 9--|

E|---------------- 9-- 9-- 9------| 9------------------------------|
B|------ 9-------- 9--11-- 9------| 6-------- 2-- 2---- 2-- 2-- 2--|
G|------10----------10 9-- 9------| 6-------- 2-- 2---- 2-- 2-- 2--|
D|------11------------ 8-- 9------| 8-------- 2---- 2-- 2-- 2-- 2--|
A|--------------------------------|---------- 0--------------------|
E|------ 9---------- 9 8-- 7------| 6------------------------------|
ClassicalGuitarTablature http://classicalguitartablature.blogspot.com/
E|--------------------------------|------------------ 5------ 5----|
B|------ 2------ 7-- 5 5-- 4-- 5 5| 7-- 5 5-- 4-- 5 1 7-- 5 5 7----|
G| 2---- 2-- 2-- 7-- 6 6-- 5-- 6 6| 7-- 5 5-- 5-- 6-- 7 6 6 6 7----|
D| 1---- 2-- 2-- 7-- 7---- 4-- 7 7| 7-- 7 7-- 4-- 7------ 7 7------|
A|--------------------------------|--------------------17----------|
E|-------------- 5 3-- 5 5 5-- 5 5| 4-- 5 3 0 5-- 5 4 5-- 5 5 5----|
ClassicalGuitarTablature http://classicalguitartablature.blogspot.com/
E|--------------------------------|------ 3 3-- 3 3------------1312|
B| 5 4 4 0 5-- 7-- 5-- 6-- 6 4 6 7|-- 7-- 5 5 5 5 5----------------|
G| 6 6 5-- 6 0 7-- 6-- 6-- 6 6 6 5|-- 5-- 5 5-- 5 5 7-- 7-- 6------|
D| 7 7 4 0 0-- 7---- 7 6-- 6 6 6 6|-- 6------------ 6-- 6-- 7------|
A|--------------------------------|---------------- 6-- 4-- 7------|
E| 5 0 6 6 0 5 5 4-- 5 5 4------ 4|-- 4-- 4-- 3 3 0-------- 5------|
ClassicalGuitarTablature http://classicalguitartablature.blogspot.com/
E|1312----------12121312 0--------|1212131210 8 7-- 6-- 6----------|
B|--------------------------------|------------------------ 8------|
G|--------------------------------|---------------------------- 8--|
D|--------------------------------|-------------- 8 8--------------|
A|------12121312----------12121312|121213--10 8 7------------------|
E|--------------------------------|-- 0------------ 0--------------|
ClassicalGuitarTablature http://classicalguitartablature.blogspot.com/
E|--------------------------------|--------------------------------|
B|--------------------------------|------------13--1111--10--11--13|
G|---------- 8-- 7-- 6-- 7-- 8 8 6| 7-- 6-- 7--13--1212--11--12--13|
D|10---- 8-- 9-- 8-- 7-- 8-- 9 9 8|---- 7-- 8--13--1313--10--13--13|
A|---------- 9-- 8-- 6-- 8--------| 7-- 7-- 8-------------- 5------|
E|--------------------------------|-----------111--1111--11--11--11|
ClassicalGuitarTablature http://classicalguitartablature.blogspot.com/
E|----------------------10--------|-------------- 0-- 6 811--11----|
B|--11-- 9--11----13--13--11--1111|10--101010 7-- 6-- 6----11-- 8--|
G|--121211----12--13--13-- 8-- 8 8|10--101010 7-- 7-- 7----12--11--|
D|--131310----13--13--13--13-- 8 8|10--101010 8-------- 8--13--10--|
A|----------------11--11 010--1010|-- 8 8 8 8----------------------|
E|--1111 911--1111-----1----------|---------- 6---- 1--------------|
ClassicalGuitarTablature http://classicalguitartablature.blogspot.com/
E|1111----------------------------|------------------ 6------------|
B| 9------------------------------|------------------ 8------ 6 6 8|
G|10---- 4 4 0-- 2-- 2 3-- 4 4 3 3|-- 2 8---- 8------ 8------ 7 7 7|
D|10---- 4 4 3-- 2-- 2 3-- 4 4 3 2|-- 2 8---- 8-- 8---------- 6 6 6|
A|------ 6-- 5---- 4 4 5-- 6-- 5 5|-- 4------ 6--------------------|
E|--------------------------------|---- 6-------- 6---- 6---- 6----|
ClassicalGuitarTablature http://classicalguitartablature.blogspot.com/
E|-------- 6 6 6------------------|------------ 6 6 6--------------|
B| 9 8-- 6 8-- 8---------------- 6| 6 8 8 8 6-- 8 8 8--------------|
G| 7 7-- 7 8 8 8-------- 8------ 7| 7 7 7 7 7-- 8 8 8-------- 8----|
D| 6 6-- 6-------------- 8-- 8-- 6| 7 8 8 7 7-- 8 8 8-------- 8----|
A|------2019-- 6---- 6-- 6-- 6----|-------------------- 6---- 6----|
E|------------ 0---- 6------ 6-- 6|-------- 6-- 6------ 6----------|
ClassicalGuitarTablature http://classicalguitartablature.blogspot.com/
E|---------------- 6 6 6----------|-- 6 6 6--------------1111------|
B|-- 6 6 8 9 8 6-- 8 8-- 6 8 9 8--| 8 8 8 8 6-- 8 9 8 611----14----|
G|-- 7 7 7 7 7 7-- 8 8 8 7 7 7-- 7| 7 8 8 8 7 7-- 7 7 713--------15|
D|-- 8---- 8 8 8-- 8 8 8 7 8 8-- 7| 8 8 8-- 8 8-- 8 8 812------12--|
A| 6------------------------------|--------------------1213----13--|
E| 6-- 6---------------- 6--------|-- 6---- 5----------------------|
ClassicalGuitarTablature http://classicalguitartablature.blogspot.com/
E|------ 0------------------------|----10--11----------------------|
B|---------------------- 7-- 6--11|----111011--------------------11|
G|-------------- 7-- 6-- 7-- 6--11|----10--12--------------------12|
D|--16---------- 9-- 7-- 7-- 6--11|--------13-- 8 810 8 8 8--10 813|
A|----------16-- 9-- 9-- 5------ 9|--------13----------------------|
E|-------------- 7-- 5------ 9----|----10--10--------------------11|
ClassicalGuitarTablature http://classicalguitartablature.blogspot.com/
E|------------------------------ 4|-- 4 4---------- 3-- 3----------|
B|111311 9-- 8 6------ 4---- 4-- 4|-- 4---- 7 2 7 7 3-- 3---- 9----|
G|12 112 7-- 7 7------ 3---- 3-- 5|-- 5 5-- 5 5 5 5 3-- 3---- 7----|
D|131313 8-- 8 8-- 8-- 5---- 5----|-------- 7 7 7------------ 6----|
A|-------------------- 6------ 5--|-------- 5 5 5 5 5--------------|
E|--1111-- 6 6 6-- 6------------ 4|-- 4 4---------- 3---- 3-- 6----|
ClassicalGuitarTablature http://classicalguitartablature.blogspot.com/
E|-------------- 8---- 6----------|18--------1818--18--1818--1818--|
B| 8 6-- 7 7---- 6---- 6 8---- 8--|18----18--1818--18--18----1818--|
G| 7 7---- 7---- 7---- 7 7---- 7--|19--------19----19----19----19--|
D| 6 6---- 6------------ 6---- 6--|--20------------20------------20|
A|--------------------------------|--------------------------------|
E| 6 6---- 6---- 6---- 6 6---- 6--| 6------------------------------|
ClassicalGuitarTablature http://classicalguitartablature.blogspot.com/
E|18------------------------------|--------------------------------|
B|----18---- 4------------------ 0| 4------------------ 4----------|
G|----19---- 3--------------------| 3------------------ 3----------|
D|---------- 5--------------------| 5------------------ 5----------|
A|---------- 4 6---------- 3 5 5--| 6-------- 5 2-- 0-- 6----------|
E|---------- 1-- 3-- 4 6 6--------|-- 3-- 3-- 6 7-------- 3 3-- 3 6|
ClassicalGuitarTablature http://classicalguitartablature.blogspot.com/
E|--------------------------------|---- 6--------------------------|
B|-------- 6-- 5------------------| 9------ 9 8-- 8-- 8-- 6-- 6 8--|
G|-------- 5----------------------| 7-- 7-- 7 7-- 7-- 7-- 4-- 7 8--|
D|-------- 7---------------- 8----| 8------ 8 8-- 8-- 8-- 8-- 8 7 8|
A|-- 3 3-- 8---------- 5 6--------|------------------------------ 7|
E|------------ 5-- 5 6-- 7-- 6-- 6|------ 6---- 6 6-- 6-- 6-- 6 0--|
ClassicalGuitarTablature http://classicalguitartablature.blogspot.com/
E|--------------------------------|--------------------------------|
B|------------ 6------------------|---------- 9-- 9 9-- 8-- 8-- 8 6|
G|-- 8-- 7-- 6--------------------|---------- 7-- 7 7-- 7-- 7-- 7 7|
D|-- 8-- 8----------------------11|---------- 8---- 8-- 8------ 8--|
A|-- 6------------13--111313------|--------------------------------|
E|---- 0 6----------------1313 9--|------ 6---- 6 6-- 6-- 6-- 6----|
ClassicalGuitarTablature http://classicalguitartablature.blogspot.com/
E|---------------- 4-- 6 8---- 8 4|-- 3-- 4-- 4---- 4-- 4 4-- 3-- 1|
B|---- 6 8-------- 4---- 9-- 4 9 4|-- 3-- 1-- 1---- 1-- 1 0-- 0-- 1|
G|---- 7 8---- 8---- 5-- 8---- 8 5|-- 3-- 1------ 1---------- 1-- 1|
D| 8-- 8 8---- 8-------- 6---- 6 6|--------------------------------|
A|------ 6---- 6---------------- 6|-------------------------- 1----|
E| 6---------------- 4---------- 4| 0 3-- 1---------------- 0 0----|
ClassicalGuitarTablature http://classicalguitartablature.blogspot.com/
E|---------------- 4-- 4 4---- 4 4| 4 3-- 1------------------------|
B|---------------- 1-- 1 1-- 1-- 1|-- 1-- 1-------------- 4-- 4-- 4|
G|-- 0 0---------- 1-- 1 1---- 1 1| 0 0-- 1-------------- 1-- 1-- 1|
D|------ 3 0----------------------|---------------- 5---- 1-- 1----|
A|---------- 3-- 1----------------|-- 1-------- 5 5 5 8 5----------|
E|-------------- 1------------ 1 1|---------------------- 1---- 1--|
ClassicalGuitarTablature http://classicalguitartablature.blogspot.com/
E|-- 1-- 1------------ 1----------|--------------------------------|
B|-- 0-- 1 1-- 3 3 4-- 1-- 4-- 3--| 4------------------ 4----------|
G|------ 1---- 0 0 0------ 1------| 3------------------ 3----------|
D| 0---------- 1-- 1------1312----| 5------------------ 5----------|
A|-- 1------------------ 1--------| 6---------- 3 5 5---------- 3 3|
E|---------- 0 0---- 1------------|-- 3-- 4 6------ 0-- 0-- 0 3-- 6|
ClassicalGuitarTablature http://classicalguitartablature.blogspot.com/
E|--------------------------------|--------------------------------|
B|-------- 4------------------ 6--|--------------------------------|
G|-------- 3------------------ 5--|-------------------------- 5----|
D|-------- 5------------------ 7--|---------- 5---- 4 5 8-- 6 8----|
A|-------- 6---- 2---- 3-- 5 5 8--|-------- 5-- 6------------------|
E| 0---------- 3-- 4 6------------| 5-- 6 8-------- 6-------- 4----|
ClassicalGuitarTablature http://classicalguitartablature.blogspot.com/
E|-------------- 7 7 7 91012------|-------- 7 4 6------------------|
B|-- 5------ 7 9 9----------------|------ 4 6 7 5-------------- 6 6|
G| 3 5-- 8 9-------------------- 3| 5 6 6-------------- 5 5 7 8-- 8|
D|-------- 9------------------ 6--|---------------- 8--------------|
A|-------- 9-------------------- 6|------------------ 8------------|
E| 4------ 7------------------ 7 4|------------------ 6------------|
ClassicalGuitarTablature http://classicalguitartablature.blogspot.com/
E|------------------ 6------------|-------------------- 6----------|
B|-- 8-------------- 6-- 6 8 9 9--|------------ 6-- 6-- 6----------|
G|---------- 5 7 7 8 7 8---- 5 5--| 7-- 8-- 7-- 7-- 7-- 7----------|
D|-------- 8 6---- 4 6 5 6-- 8 8--| 8--10-- 8---------------- 8----|
A|-------- 5 6 6 8----------------|--------------------------------|
E|-------------- 5----------------|--------------------------------|
ClassicalGuitarTablature http://classicalguitartablature.blogspot.com/
E|---------- 6---------------- 6--|-------------- 8----------------|
B| 8---- 8---------- 3---- 3 6----|------ 8---- 8 8------ 3------ 4|
G| 8-- 8---------------- 3--------|------ 8-- 8---------- 1--------|
D|-- 8---------- 8----------------|--------10-------------- 3------|
A| 6---------------- 5------------|------------------------ 2------|
E|--------------------------------|------ 8------------ 7----------|
ClassicalGuitarTablature http://classicalguitartablature.blogspot.com/
E|--------------------------------|-- 3 4 3-- 5-- 5------------ 5--|
B|-- 4------ 3---- 4 6 4------ 6--|------ 4-- 8-- 7-------- 8------|
G|-- 5------ 1-------- 5------ 3--|------ 3-- 6-- 5-------- 5------|
D|-- 5------ 3-------- 5------ 3--|---------- 7---------- 7--------|
A|-- 3------ 2-------- 3----------|------ 6-- 6-- 5----------------|
E|---------------------------- 6 4| 3 3------------------ 4--------|
ClassicalGuitarTablature http://classicalguitartablature.blogspot.com/
E|-- 6------------------ 8------ 8|----10------------11-------- 4 3|
B| 3------------------ 9-------- 9|---- 9--11--------11--11---- 4 4|
G| 3------------------ 8---- 8----|--------12------------12---- 3 2|
D| 5------------------------------|--------13----13------13------ 5|
A|--------------------11----------|---------------------------- 1--|
E|-- 3----------------------------|--------11----------------------|
ClassicalGuitarTablature http://classicalguitartablature.blogspot.com/
E|--------------------------------|-- 3----------------------------|
B|------ 4---------------------- 3|-- 4 5 4------ 3 3--------------|
G|------ 5-------- 3-------- 3----|-- 3 3 3-------------- 3--------|
D|------------ 5-- 5-- 5----------|---- 5 5-------------- 5---- 5--|
A|------ 3------------------------|-- 3----------------------------|
E|---------------- 3--------------|---------------------- 3--------|
ClassicalGuitarTablature http://classicalguitartablature.blogspot.com/
E|---------- 3------------ 3------|---------------------------- 3--|
B|---- 3---- 4-- 4---- 6-- 5---- 4|---------------------------- 1--|
G| 3-------- 3-- 3-------------- 4|------ 4-------------------- 1--|
D|------------------------------ 3|--------------------------------|
A|-------- 3----------------------|---------------------------- 1--|
E|---------------------------- 4--|--------------------------------|
ClassicalGuitarTablature http://classicalguitartablature.blogspot.com/
E| 1---- 1------------------------|--------------------------------|
B|---------- 4---- 4--------------|--------------------------------|
G|---------- 5------------ 5------| 5 6 7--------------------12----|
D|---------- 6---- 6--------------|------------------1313----------|
A|------ 0------------------------|--------------------------------|
E|---------- 6---- 6--------------|------------------11------------|
ClassicalGuitarTablature http://classicalguitartablature.blogspot.com/
E|--------10--------10------------|--------------10--------10------|
B|11--13--------13--------11------|------11--10--------10------11--|
G|----13------------------12------|12--------11--------11--------10|
D|----13----------------13----13--|--13------10------------------12|
A|--------------------------------|--------------------------------|
E|----------------------11--------|------------------------------10|
ClassicalGuitarTablature http://classicalguitartablature.blogspot.com/
E|--------------------------------|--------------------------------|
B|------------11--11-- 9-- 6 9 8 8|---- 8------------ 8--11---- 9--|
G|------10--------10 810----10----|---- 9-------- 9------ 9--------|
D|--12------------ 8-- 8---- 8----|----10--10------------11--------|
A|--------------------------------|--------------------------------|
E|-------------- 9 9-------- 9----|---- 8------------------ 8------|
ClassicalGuitarTablature http://classicalguitartablature.blogspot.com/
E|--------------------------------|---------------------- 1--------|
B|-- 9-- 8 8-- 8---- 5------------|--------------------------------|
G|-- 9-------- 5------------ 5----|-------- 2----------------------|
D|-- 8-------- 8------------------| 8------ 3----------------------|
A|--------------------------------|--------------------------------|
E|------------ 8------------------|-------- 1----------------------|
ClassicalGuitarTablature http://classicalguitartablature.blogspot.com/
E|--------13------------13--------|------13----------13------------|
B|--11--------10------------------|------------------11------------|
G|--10----------10----------------|10----------------10------------|
D|--------------------------------|--------------------------------|
A|--13--------1212----------------|11----------------10------------|
E|--------------------------------|--------------------------------|
ClassicalGuitarTablature http://classicalguitartablature.blogspot.com/
E|---------------------- 1--------|--------------------------------|
B|---------------------- 1--------|--------------------------------|
G|--------------------------------|--------------------------------|
D|--------------------------------|--------------------------------|
A|--------------------------------|--------------------------------|
E|---------------------- 1--------|--------------------------------|

0 ความคิดเห็น:

แสดงความคิดเห็น