To celebrate the anniversary, I am giving you (finally...) : iPhone LickByNeck !!!!!!

Christmas Time Is Here


Christmas Time Is Here played in the key of D.
ClassicalGuitarTablature http://classicalguitartablature.blogspot.com/
E|-------- 5--------------|---- 5------------------|
B| 5------------------ 5--| 7-------------- 7-- 6--|
G| 4-------------- 4------| 6---------- 6----------|
D| 4-- 4------ 4----------| 5------ 5--------------|
A| 5----------------------|------------------------|
E|------------------------| 5----------------------|
ClassicalGuitarTablature http://classicalguitartablature.blogspot.com/
E|-------- 5--------------|---- 5------------------|
B| 5------------------ 5--| 7-------------- 7-- 6--|
G| 4-------------- 4------| 6---------- 6----------|
D| 4-- 4------ 4----------| 5------ 5--------------|
A| 5----------------------|------------------------|
E|------------------------| 5----------------------|
ClassicalGuitarTablature http://classicalguitartablature.blogspot.com/
E| 9----------------------|---------------------- 9|
B|----1010---------- 7-- 7|------------------------|
G|11--11 9---------- 7-- 7|---------------- 3------|
D|----11------ 9---- 7----|---- 8------ 8-- 4-- 4--|
A|------------------------|------------------------|
E|10---- 9------ 7---- 7 8|-------- 6------ 4------|
ClassicalGuitarTablature http://classicalguitartablature.blogspot.com/
E|-------- 5--------------|------------------------|
B|----10-- 5------------ 7|------------------------|
G| 7-- 7------ 6---- 6-- 7|---------------- 3------|
D|---- 7------------ 7----|---- 8------ 8-- 4-- 4--|
A| 9------ 7------ 5-- 5--|------------------------|
E|---------------------- 8|-------- 6------ 4------|
ClassicalGuitarTablature http://classicalguitartablature.blogspot.com/
E| 2----------------------|------------------------|
B| 3-- 3-- 3-------- 2----| 5-- 2-- 2--------------|
G| 1-- 1-- 4-------- 2----| 2------ 4------ 5------|
D|---- 0------ 4---- 3----| 2-- 2-- 2-- 2------ 3--|
A|------------------------|------------------------|
E| 2------ 4------ 3-- 3--| 2------ 3------ 4------|
ClassicalGuitarTablature http://classicalguitartablature.blogspot.com/
E|------------------------|------------------------|
B|---- 3-- 0------ 3------| 5----------------------|
G| 4---------- 0------ 3--|---- 6------ 7------ 6--|
D|-- 5------ 4------ 2----|-- 4------ 5------ 5----|
A|-------- 2------ 3------| 5------ 7------ 6------|
E| 5----------------------|------------------------|
ClassicalGuitarTablature http://classicalguitartablature.blogspot.com/
E| 9----------------------|---------------------- 9|
B|----1010---------- 7-- 7|------------------------|
G|11--11 9---------- 7-- 7|---------------- 3------|
D|----11------ 9---- 7----|---- 8------ 8-- 4-- 4--|
A|------------------------|------------------------|
E|10---- 9------ 7---- 7 8|-------- 6------ 4------|
ClassicalGuitarTablature http://classicalguitartablature.blogspot.com/
E|-------- 5--------------|------------------------|
B|----10-- 5------------ 7|------------------------|
G| 7-- 7------ 6---- 6-- 7|---------------- 3------|
D|---- 7------------ 7----|---- 8------ 8-- 4-- 4--|
A| 9------ 7------ 5-- 5--|------------------------|
E|---------------------- 8|-------- 6------ 4------|
ClassicalGuitarTablature http://classicalguitartablature.blogspot.com/
E| 2----------------------|------------------------|
B| 3-- 3-- 3-------- 2----| 5-- 2-- 2--------------|
G| 1-- 1-- 4-------- 2----| 2------ 4------ 5------|
D|---- 0------ 4---- 3----| 2-- 2-- 2-- 2------ 3--|
A|------------------------|------------------------|
E| 2------ 4------ 3-- 3--| 2------ 3------ 4------|
ClassicalGuitarTablature http://classicalguitartablature.blogspot.com/
E|------------------------|------------------------|
B|---- 3-- 0------ 3---- 5|------------------------|
G| 4---------- 0------ 3 6|------------ 6-- 7-- 7--|
D|-- 5------ 4------ 2----|---- 4---- 4------ 8 7--|
A|-------- 2------ 3------| 5---- 4----------------|
E| 5----------------------|---------------- 8-- 7--|
ClassicalGuitarTablature http://classicalguitartablature.blogspot.com/
E| 5----------------------| 5----------------------|
B|---- 6-- 6----------10--| 5----------------------|
G| 7-- 7------ 6------ 9--|---- 6------ 6------ 6--|
D|-- 7------ 7------ 8----|------------------------|
A|------------------------| 4------ 6------ 8------|
E| 6------ 7------ 8------|------------------------|
ClassicalGuitarTablature http://classicalguitartablature.blogspot.com/
E| 5---------------- 5-- 5|---------------------- 5|
B| 6-- 6 6---------- 6-- 6|---------------------- 2|
G| 3-- 3 5---------- 5-- 6|-------------------- 2 2|
D|---- 3 4---- 4------ 5--|---- 5------ 5------ 3--|
A|------------------------|------------------------|
E| 3---- 4-------- 5---- 6|-------- 5---- 3--------|
ClassicalGuitarTablature http://classicalguitartablature.blogspot.com/
E|---- 2------------ 5----| 5------ 2--------------|
B|---- 2 7---------- 8----| 7-- 7-- 5------------ 8|
G|---- 2 5---------- 5----| 4------ 2---------- 2 7|
D|------------ 7----------|------------ 2---- 2-- 5|
A|-------- 6---- 7---- 7--| 6------ 4---- 3--------|
E| 2----------------------|---------------------- 7|
ClassicalGuitarTablature http://classicalguitartablature.blogspot.com/
E|------------------------| 2----------------------|
B|---- 5-- 5-------- 7----| 3---------- 3----------|
G|---- 7-- 7-- 7---- 6----| 4-- 4---- 4---- 7-- 6--|
D|---- 5-- 5 5------ 5----|---------------- 5-- 5--|
A|------------------------|-------------------- 6--|
E|-------- 6------ 5-- 5--| 4------ 2------ 0------|
ClassicalGuitarTablature http://classicalguitartablature.blogspot.com/
E| 9----------------------|---------------------- 9|
B|----1010---------- 7-- 7|------------------------|
G|11--11 9---------- 7-- 7|---------------- 3------|
D|----11------ 9---- 7----|---- 8------ 8-- 4-- 4--|
A|------------------------|------------------------|
E|10---- 9------ 7---- 7 8|-------- 6------ 4------|
ClassicalGuitarTablature http://classicalguitartablature.blogspot.com/
E|-------- 5--------------|------------------------|
B|----10-- 5------------ 7|------------------------|
G| 7-- 7------ 6---- 6-- 7|---------------- 3------|
D|---- 7------------ 7----|---- 8------ 8-- 4-- 4--|
A| 9------ 7------ 5-- 5--|------------------------|
E|---------------------- 8|-------- 6------ 4------|
ClassicalGuitarTablature http://classicalguitartablature.blogspot.com/
E| 2----------------------|------------------------|
B| 3-- 3-- 3-------- 2----| 5-- 2-- 2--------------|
G| 1-- 1-- 4-------- 2----| 2------ 4------ 5------|
D|---- 0------ 4---- 3----| 2-- 2-- 2-- 2------ 3--|
A|------------------------|------------------------|
E| 2------ 4------ 3-- 3--| 2------ 3------ 4------|
ClassicalGuitarTablature http://classicalguitartablature.blogspot.com/
E|------------------------|------------------------|
B|---- 3-- 0------ 3------| 5----------------------|
G| 4---------- 0------ 3--|---- 6------ 0------ 1--|
D|-- 5------ 4------ 2----|-- 4------ 0------ 0----|
A|-------- 2------ 3------| 5----------------------|
E| 5----------------------|-------- 0------ 1------|
ClassicalGuitarTablature http://classicalguitartablature.blogspot.com/
E| 2----------------------|------------------------|
B| 3-- 3-- 3-------- 2----| 5-- 2-- 2--------------|
G| 1-- 1-- 4-------- 2----| 2------ 4------ 5------|
D|---- 0------ 4---- 3----| 2-- 2-- 2-- 2------ 3--|
A|------------------------|------------------------|
E| 2------ 4------ 3-- 3--| 2------ 3------ 4------|
ClassicalGuitarTablature http://classicalguitartablature.blogspot.com/
E|------------------------|------------------------|
B|---- 3-- 0------ 3------| 5----------------------|
G| 4---------- 0------ 3--|---- 6------ 0------ 1--|
D|-- 5------ 4------ 2----|-- 4------ 0------ 0----|
A|-------- 2------ 3------| 5----------------------|
E| 5----------------------|-------- 0------ 1------|
ClassicalGuitarTablature http://classicalguitartablature.blogspot.com/
E| 2----------------------|------------------------|
B| 3-- 3-- 3-------- 2----| 5-- 2-- 2--------------|
G| 1-- 1-- 4-------- 2----| 2------ 4------ 5------|
D|---- 0------ 4---- 3----| 2-- 2-- 2-- 2------ 3--|
A|------------------------|------------------------|
E| 2------ 4------ 3-- 3--| 2------ 3------ 4------|
ClassicalGuitarTablature http://classicalguitartablature.blogspot.com/
E|------------------------|------------------------|
B|---- 3-- 0-------- 3----|------------------ 5----|
G| 4---------- 0-- 3------|---------------- 6------|
D|-- 5------ 4---- 2------|---------------- 4------|
A|-------- 2------ 3------|---------------- 5------|
E| 5----------------------|------------------------|
ClassicalGuitarTablature http://classicalguitartablature.blogspot.com/
E|------------------------|------------------------|
B|------------------------|------------------------|
G|------------------------|------------------------|
D|------------------------|------------------------|
A|------------------------|------------------------|
E|------------------------|------------------------|

0 ความคิดเห็น:

แสดงความคิดเห็น