To celebrate the anniversary, I am giving you (finally...) : iPhone LickByNeck !!!!!!

Crazy Little Thing Called Love

Happy Valentine's Day 2007!

http://classicalguitartablature.blogspot.com/
http://classicalguitartablature.blogspot.com/
Crazy Little Thing Called Love played in the key of F#.
ClassicalGuitarTablature http://classicalguitartablature.blogspot.com/
E|--------------------------------|--------------------------------|
B| 2---- 2---- 2-------- 2---- 2--|------ 2---- 2-------- 2------ 2|
G| 3-- 3 4---- 3-------- 4---- 3--|---- 3 4---- 3------ 3 4------ 3|
D| 4---- 4---- 4------ 4 4---- 4--|------ 4---- 4------ 4 4------ 4|
A|--------------------------------|--------------------------------|
E|--------------------------------|--------------------------------|
ClassicalGuitarTablature http://classicalguitartablature.blogspot.com/
E|--------------------------------|--------------------------------|
B|------ 2---- 2---------- 2-- 2--|------ 2-------------- 4---- 2--|
G|---- 3 4---- 3------ 3-- 4-- 3--|---- 3 4---- 3-------- 3---- 3--|
D|---- 4 4---- 4---------- 4-- 4--|---- 4 4---- 4-------- 4---- 4--|
A|--------------------------------|--------------------------------|
E| 2------ 2-------------- 2------|-------- 2-- 2------------------|
ClassicalGuitarTablature http://classicalguitartablature.blogspot.com/
E|--------------------------------|---------------------------- 2--|
B|-------------------- 4------ 2--|-------------------- 4------ 4--|
G|-------------------- 4------ 3--|-------------------- 4------ 4--|
D|-------------------- 4------ 4--|-------------------- 4----------|
A|---------------- 4------ 6------|-------------- 4-- 6---------- 2|
E| 2------ 4 6------------------ 2|------ 4 5 6--------------------|
ClassicalGuitarTablature http://classicalguitartablature.blogspot.com/
E|---- 2-------------- 4----------|--------------------------------|
B|---- 4-------------- 4------10--|---- 9------ 7------ 4------ 2--|
G|-------------------- 4------ 9--|---- 9------ 4------ 4------ 3--|
D|-------------- 4---- 5 6---- 9--|---- 9------ 4------ 4------ 4--|
A|------ 4 5 6--------------------| 7-------------- 6--------------|
E|--------------------------------|-------------------- 7-- 7------|
ClassicalGuitarTablature http://classicalguitartablature.blogspot.com/
E|--------------------------------|--------------------------------|
B|-------------------- 4------ 2--|-------------------- 4------ 7--|
G|-------------------- 4------ 3--|-------------------- 4------ 4--|
D|-------------------- 4------ 4--|-------------------- 4------ 4--|
A|-------------- 4-- 6-- 6--------|-------------- 4-- 6------------|
E| 2---- 4 5 6------------------ 2|------ 4 5 6------------------ 7|
ClassicalGuitarTablature http://classicalguitartablature.blogspot.com/
E|--------------------------------|---------------------- 4------ 6|
B|---- 7 7------ 7---- 9---- 7--10|---- 9------ 7------ 7 7-- 7-- 2|
G|---- 4 4------ 8----11-------- 9|---- 9------ 4---- 4-- 4---- 4 3|
D|------ 4------ 9-- 9 9-------- 9|---- 9------ 4---- 4-------- 4--|
A|------ 6-- 6-- 9------11------ 7|---- 7------ 6------------------|
E|--------------------------------|---------------------- 7--------|
ClassicalGuitarTablature http://classicalguitartablature.blogspot.com/
E|---- 6--------------------------|--------------------------------|
B|-------------------- 2----------|--------------------------------|
G|-------------------- 3-------- 2|---- 2-- 2---- 4---- 4------ 3--|
D|-------------------- 4-------- 4|---- 4-- 4---- 6---- 6------ 4--|
A|---------------- 4------ 6---- 5|-------- 5-- 5-- 7-- 7----------|
E| 2------ 4 5--------------------|--------------------------------|
ClassicalGuitarTablature http://classicalguitartablature.blogspot.com/
E|--------------------------------|--------------------------------|
B|---------------------------- 2--|------ 2---- 2 2------ 4---- 2--|
G|-------------------- 3------ 3--|------ 4---- 4 4------ 3---- 3--|
D|-------------------- 4------ 4--|------ 3------ 4------ 4---- 4--|
A|---------------- 4------ 6------|------ 4------ 4----------------|
E| 2------ 4 5--------------------| 2------------------------------|
ClassicalGuitarTablature http://classicalguitartablature.blogspot.com/
E|--------------------------------|---------------------------- 2--|
B|-------------------- 4------ 2--|-------------------- 4------ 4--|
G|-------------------- 4------ 3--|-------------------- 4------ 4--|
D|-------------------- 4------ 4--|-------------------- 4----------|
A|---------------- 4------ 6------|-------------- 4-- 6---------- 2|
E| 2------ 4 6------------------ 2|------ 4 5 6--------------------|
ClassicalGuitarTablature http://classicalguitartablature.blogspot.com/
E|---- 2-------------- 4----------|--------------------------------|
B|---- 4-------------- 4------10--|---- 9------ 7------ 4------ 2--|
G|-------------------- 4------ 9--|---- 9------ 4------ 4------ 3--|
D|-------------- 4---- 5 6---- 9--|---- 9------ 4------ 4------ 4--|
A|------ 4 5 6--------------------| 7-------------- 6--------------|
E|--------------------------------|-------------------- 7-- 7------|
ClassicalGuitarTablature http://classicalguitartablature.blogspot.com/
E|--------------------------------|--------------------------------|
B|-------------------- 4------ 2--|-------------------- 4------ 7--|
G|-------------------- 4------ 3--|-------------------- 4------ 4--|
D|-------------------- 4------ 4--|-------------------- 4------ 4--|
A|-------------- 4-- 6-- 6--------|-------------- 4-- 6------------|
E| 2---- 4 5 6------------------ 2|------ 4 5 6------------------ 7|
ClassicalGuitarTablature http://classicalguitartablature.blogspot.com/
E|--------------------------------|---------------------- 4------ 6|
B|---- 7 7------ 7---- 9---- 7--10|---- 9------ 7------ 7 7-- 7-- 2|
G|---- 4 4------ 8----11-------- 9|---- 9------ 4---- 4-- 4---- 4 3|
D|------ 4------ 9-- 9 9-------- 9|---- 9------ 4---- 4-------- 4--|
A|------ 6-- 6-- 9------11------ 7|---- 7------ 6------------------|
E|--------------------------------|---------------------- 7--------|
ClassicalGuitarTablature http://classicalguitartablature.blogspot.com/
E|---- 6--------------------------|--------------------------------|
B|-------------------- 2----------|--------------------------------|
G|-------------------- 3-------- 2|---- 2-- 2---- 4---- 4------ 3--|
D|-------------------- 4-------- 4|---- 4-- 4---- 6---- 6------ 4--|
A|---------------- 4------ 6---- 5|-------- 5-- 5-- 7-- 7----------|
E| 2------ 4 5--------------------|--------------------------------|
ClassicalGuitarTablature http://classicalguitartablature.blogspot.com/
E|--------------------------------|-------------- 2------ 2------ 5|
B|---------------------------- 2--|------ 7------ 5------ 3--------|
G|-------------------- 3------ 3--|------ 6------ 4------ 3--------|
D|-------------------- 4------ 4--|-------- 4----------------------|
A|---------------- 4------ 6------|-------------- 4-------- 3------|
E| 2------ 4 5------------------ 2|-------- 6----------------------|
ClassicalGuitarTablature http://classicalguitartablature.blogspot.com/
E|---- 4--------------------------|--------------------------------|
B| 2-- 2------ 7------------------|--------------------------------|
G| 2-- 2------ 4------ 4-- 4------|--------------------------------|
D|------------ 4---------- 6-- 4 4|---- 4 6-- 4-- 4---- 4 6--------|
A| 2------------------------------|--------------------------------|
E|------------ 7---------- 7-- 7 7|------ 7------ 7-------- 7------|
ClassicalGuitarTablature http://classicalguitartablature.blogspot.com/
E|--------------------------------|---------------------------- 5--|
B| 9-- 9-- 9---- 9---- 9------ 7--|---- 7-------- 7---- 7------ 3--|
G| 9-- 9-- 9---- 9---- 9------ 4--|---- 4-------- 4---- 4------ 2--|
D| 9-- 9---------- 9-- 9------ 4--|---- 4-------- 4---- 4----------|
A| 7------ 6----------------------|-------- 4---- 6-------------- 5|
E|---------------- 9---- 9------ 7|--------------------------------|
ClassicalGuitarTablature http://classicalguitartablature.blogspot.com/
E|---- 4------ 2------------------|------------------------------ 4|
B|---- 3------ 3------------------|---- 3-------------- 3-------- 4|
G|------------ 2------------------|---- 2-------------- 2-------- 5|
D|--------------------------------|---- 4-------------- 4----------|
A|------ 4------ 2----------------|--------------------------------|
E|---------------------- 5------ 4|-------- 2---- 0-------- 0------|
ClassicalGuitarTablature http://classicalguitartablature.blogspot.com/
E|------ 4------ 4---- 6----------|--------------------------------|
B|------ 4------ 4---- 4------ 2--|---- 2 2------ 5---- 4---- 2----|
G|------ 5---- 5 4---- 4------ 2--|---- 2 2------ 2---- 2------ 2--|
D|---------------------------- 2--|---- 2 2---- 2 2---- 2------ 2--|
A|-------------- 4------------ 0--|-------------- 0---- 0------ 0--|
E| 4------------------------------|--------------------------------|
ClassicalGuitarTablature http://classicalguitartablature.blogspot.com/
E|--------------------------------|--------------------------------|
B|--------------------------------|--------------------------------|
G|--------------------------------|--------------------------------|
D|--------------------------------|--------------------------------|
A|--------------------------------|---- 4---- 3---- 2--------------|
E|---- 2---- 1-- 0----------------|--------------------------------|
ClassicalGuitarTablature http://classicalguitartablature.blogspot.com/
E|--------------------------------|--------------------------------|
B| 4---- 4-- 4---- 4-- 4---- 4-- 6|------ 4------ 6------ 4---- 2--|
G| 5---- 5-- 5---- 5-- 5---- 5-- 6|------ 4------ 6------ 3---- 3--|
D| 6---- 6-- 6---- 6-- 6---- 6-- 6|------ 4------ 6------ 4---- 4--|
A|--------------------------------| 4------ 2----------------------|
E| 4---- 4---- 4-- 4---- 4-- 4----|---------------- 6--------------|
ClassicalGuitarTablature http://classicalguitartablature.blogspot.com/
E|--------------------------------|---------------------------- 2--|
B|-------------------- 4------ 2--|-------------------- 4------ 4--|
G|-------------------- 4------ 3--|-------------------- 4------ 4--|
D|-------------------- 4------ 4--|-------------------- 4----------|
A|---------------- 4------ 6------|-------------- 4-- 6---------- 2|
E| 2------ 4 6------------------ 2|------ 4 5 6--------------------|
ClassicalGuitarTablature http://classicalguitartablature.blogspot.com/
E|---- 2-------------- 4----------|--------------------------------|
B|---- 4-------------- 4------10--|---- 9------ 7------ 4------ 2--|
G|-------------------- 4------ 9--|---- 9------ 4------ 4------ 3--|
D|-------------- 4---- 5 6---- 9--|---- 9------ 4------ 4------ 4--|
A|------ 4 5 6--------------------| 7-------------- 6--------------|
E|--------------------------------|-------------------- 7-- 7------|
ClassicalGuitarTablature http://classicalguitartablature.blogspot.com/
E|--------------------------------|--------------------------------|
B|-------------------- 4------ 2--|-------------------- 4------ 7--|
G|-------------------- 4------ 3--|-------------------- 4------ 4--|
D|-------------------- 4------ 4--|-------------------- 4------ 4--|
A|-------------- 4-- 6-- 6--------|-------------- 4-- 6------------|
E| 2---- 4 5 6------------------ 2|------ 4 5 6------------------ 7|
ClassicalGuitarTablature http://classicalguitartablature.blogspot.com/
E|--------------------------------|---------------------- 4------ 6|
B|---- 7 7------ 7---- 9---- 7--10|---- 9------ 7------ 7 7-- 7-- 2|
G|---- 4 4------ 8----11-------- 9|---- 9------ 4---- 4-- 4---- 4 3|
D|------ 4------ 9-- 9 9-------- 9|---- 9------ 4---- 4-------- 4--|
A|------ 6-- 6-- 9------11------ 7|---- 7------ 6------------------|
E|--------------------------------|---------------------- 7--------|
ClassicalGuitarTablature http://classicalguitartablature.blogspot.com/
E|---- 6--------------------------|--------------------------------|
B|-------------------- 2----------|--------------------------------|
G|-------------------- 3-------- 2|---- 2-- 2---- 4---- 4------ 3--|
D|-------------------- 4-------- 4|---- 4-- 4---- 6---- 6------ 4--|
A|---------------- 4------ 6---- 5|-------- 5-- 5-- 7-- 7----------|
E| 2------ 4 5--------------------|--------------------------------|
ClassicalGuitarTablature http://classicalguitartablature.blogspot.com/
E|--------------------------------|--------------------------------|
B|--------------------------------|--------------------------------|
G|-------------------- 3-------- 2|---- 2-- 2---- 4---- 4------ 3--|
D|-------------------- 4-------- 4|---- 4-- 4---- 6---- 6------ 4--|
A|---------------- 4------ 6---- 5|-------- 5-- 5-- 7-- 7----------|
E| 2------ 4 5--------------------|--------------------------------|
ClassicalGuitarTablature http://classicalguitartablature.blogspot.com/
E|--------------------------------|------------------------ 5-- 2--|
B|--------------------------------| 7-- 7 5-------- 7------ 2------|
G|-------------------- 3----------| 6-- 6------ 6-- 7------ 3-- 3--|
D|-------------------- 4----------| 7-- 7---------- 6--------------|
A|---------------- 4------ 6------| 5-------------- 7--------------|
E| 2------ 4 5--------------------|--------------------------------|
ClassicalGuitarTablature http://classicalguitartablature.blogspot.com/
E|------ 5---- 2------ 2----------|------------------------ 5-- 2--|
B|------ 2---- 2------ 2----------| 7-- 7 5-------- 7------ 2------|
G|------ 3---- 3------ 3----------| 6-- 6------ 6-- 7------ 3-- 3--|
D|--------------------------------| 7-- 7---------- 6--------------|
A|--------------------------------| 5-------------- 7--------------|
E| 2------ 2------ 2------ 2------|--------------------------------|
ClassicalGuitarTablature http://classicalguitartablature.blogspot.com/
E|------ 5---- 2------ 2----------|------------------------ 5-- 2--|
B|------ 2---- 2------ 2----------| 7-- 7 5-------- 7------ 2------|
G|------ 3---- 3------ 3----------| 6-- 6------ 6-- 7------ 3-- 3--|
D|--------------------------------| 7-- 7---------- 6--------------|
A|--------------------------------| 5-------------- 7--------------|
E| 2------ 2------ 2------ 2------|--------------------------------|
ClassicalGuitarTablature http://classicalguitartablature.blogspot.com/
E|------ 5---- 2------ 2----------|--------------------------------|
B|------ 2---- 2------ 2-------- 2|-------- 4------ 2------ 2---- 4|
G|------ 3---- 3------ 3-------- 3|-------- 4------ 2 3---- 4---- 4|
D|------------------------------ 4|-------- 4------ 2------ 4---- 4|
A|--------------------------------|--------------------------------|
E| 2------ 2------ 2------ 2------| 2------------------------------|
ClassicalGuitarTablature http://classicalguitartablature.blogspot.com/
E|--------------------------------|--------------------------------|
B|---- 2---------------- 5--------|--------------------------------|
G|---- 2 3-------------- 3--------|--------------------------------|
D|---- 2------ 4-------- 2--------|--------------------------------|
A|--------------------------------|--------------------------------|
E|------------------------ 2------|--------------------------------|
ClassicalGuitarTablature http://classicalguitartablature.blogspot.com/

0 ความคิดเห็น:

แสดงความคิดเห็น