To celebrate the anniversary, I am giving you (finally...) : iPhone LickByNeck !!!!!!

Don't Know Why

Norah Jones's Hit aranged for solo guitar.
ClassicalGuitarTablature http://classicalguitartablature.blogspot.com/
Don't Know Why played in the key of Bb.
ClassicalGuitarTablature http://classicalguitartablature.blogspot.com/
E| 5------ 6---------- 6----------|--------------------------------|
B| 6---------- 9-------- 6------ 8|---------- 8------ 7------------|
G| 7-- 7------ 7-------------- 7--|-- 7-------- 5---- 5------------|
D|------------ 6------------------|------ 8---- 7---- 4------ 4----|
A|------------------------------ 6|------------ 5------------------|
E| 6---------- 6------------------|------------------------ 4------|
ClassicalGuitarTablature http://classicalguitartablature.blogspot.com/
E|--------------------------------|------------------------------ 5|
B|------ 6-- 5--------------------|------ 4-- 3--------------------|
G|------ 3-- 3------ 3------ 3----|------ 2-- 2------------ 3------|
D|-- 3-------- 5---- 5------ 2----|-- 1-------------- 3------------|
A|------------ 3------------------|------------ 1------------------|
E| 3---------------------- 2---- 1|--------------------------------|
ClassicalGuitarTablature http://classicalguitartablature.blogspot.com/
E|------ 6---------- 6------------|--------------------------------|
B| 6---------- 9---------- 6---- 8|---------- 8------ 7------------|
G|-- 7-------- 7------------ 7-- 7|------ 7-- 5------ 5------------|
D|------------ 6---------------- 8|-- 8------ 7-------- 4---- 4----|
A|------------------------------ 6|---------- 5--------------------|
E| 6---------- 6------------------|---------------------- 4------ 3|
ClassicalGuitarTablature http://classicalguitartablature.blogspot.com/
E|--------------------------------|--------------------------------|
B|------ 6---- 5------ 5----------|-------- 4-- 3------ 3----------|
G|-- 3-- 4---- 3------ 3------ 3--|-------- 2-- 2---------- 3------|
D|-- 3-- 6---- 5-------------- 2--|---- 1-- 1-- 3------ 3-- 3------|
A|------ 4---- 3------------------|------------ 1------------------|
E|-------------------------- 2----| 1------------------------------|
ClassicalGuitarTablature http://classicalguitartablature.blogspot.com/
E|---- 5--------------------------|--------------------------------|
B|---- 6 6---- 6---- 3------------| 3------ 3----------------------|
G|---- 7-- 7-- 3---- 3------ 3----|-- 3------ 3------ 3------ 3-- 3|
D|------------ 6---------- 6---- 5|---- 5---- 4------ 4---- 4 4-- 3|
A|------------ 5---------------- 6|---------- 5--------------------|
E| 6------------------------------|---------------------- 4------ 3|
ClassicalGuitarTablature http://classicalguitartablature.blogspot.com/
E|--------------------------------|--------------------------------|
B|------ 3---- 1------------------|---- 1------ 3------------------|
G|-- 5-- 4---- 3------ 3---- 3-- 3|---- 2------ 2---------- 3------|
D|-- 3-- 3---- 2------ 2---- 1----| 1 1-------- 3------ 3----------|
A|------ 4---- 3------------------|------------ 1------------------|
E|---------------------- 3--------| 2-- 1------------------------ 6|
ClassicalGuitarTablature http://classicalguitartablature.blogspot.com/
E|-- 5----------------------------|--------------------------------|
B|-- 6-- 6-- 6------ 3---------- 3|--------------------------------|
G|-- 5-- 5-- 3------ 3------ 3-- 3|-- 3-------- 3------ 3 5---- 5--|
D|------ 5-- 3---------- 3------ 1|------------ 1-------------- 4--|
A|--------------------------------|--------------------------------|
E|------------ 4---------------- 3|------ 3---- 2---------- 5------|
ClassicalGuitarTablature http://classicalguitartablature.blogspot.com/
E|--------------------------------|--------------------------------|
B|------ 3---- 1------------------|--------------------------------|
G| 3-- 5 4---- 3------ 3------ 3 3|---- 5------ 3------ 3----------|
D| 3-- 3 3---- 2------ 1-- 1---- 1|---- 3------ 3-------------- 3--|
A|-------- 4-- 3------------------|--------------------------------|
E| 3------------------ 3----------| 2---- 5---- 6---------- 5------|
ClassicalGuitarTablature http://classicalguitartablature.blogspot.com/
E|--------------------------------|--------------------------------|
B|------ 3---- 1------------------|---- 1------ 3------ 3----------|
G| 3 5-- 4---- 3---- 3-------- 3--| 3-- 2------ 2------ 2---- 5----|
D| 3 3-- 3---------- 1-- 1--------| 1-- 1------ 3------ 3---- 3----|
A|------ 4---- 3------------------|------------ 1------------------|
E| 3---------------- 3------------| 2------ 1-------------- 5------|
ClassicalGuitarTablature http://classicalguitartablature.blogspot.com/
E|--------------------------------|--------------------------------|
B|-------- 3-- 1---- 1------------|--------------------------------|
G| 3-- 5-- 4-- 3------ 3------ 3 3|-- 5-------- 3------ 3-- 3------|
D| 3-- 3-- 3-- 2------ 1-- 1---- 1|---- 3------ 3---------- 3------|
A|-------- 4-- 3------------------|--------------------------------|
E| 3------------------ 3----------| 2------ 5-- 6------------------|
ClassicalGuitarTablature http://classicalguitartablature.blogspot.com/
E|---- 5--------------------------|--------------------------------|
B|---- 6 6---- 6---- 3------------| 3------ 3----------------------|
G|---- 7-- 7-- 3---- 3------ 3----|-- 3------ 3------ 3------ 3-- 3|
D|------------ 6---------- 6---- 5|---- 5---- 4------ 4---- 4 4-- 3|
A|------------ 5---------------- 6|---------- 5--------------------|
E| 6------------------------------|---------------------- 4------ 3|
ClassicalGuitarTablature http://classicalguitartablature.blogspot.com/
E|--------------------------------|--------------------------------|
B|------ 3---- 1------------------|---- 1------ 3------------------|
G|-- 5-- 4---- 3------ 3---- 3-- 3|---- 2------ 2---------- 3------|
D|-- 3-- 3---- 2------ 2---- 1----| 1 1-------- 3------ 3----------|
A|------ 4---- 3------------------|------------ 1------------------|
E|---------------------- 3--------| 2-- 1------------------------ 6|
ClassicalGuitarTablature http://classicalguitartablature.blogspot.com/
E|-- 5----------------------------|--------------------------------|
B|-- 6-- 6-- 6------ 3---------- 3|--------------------------------|
G|-- 5-- 5-- 3------ 3------ 3-- 3|-- 3-------- 3------ 3 5---- 5--|
D|------ 5-- 3---------- 3------ 1|------------ 1-------------- 4--|
A|--------------------------------|--------------------------------|
E|------------ 4---------------- 3|------ 3---- 2---------- 5------|
ClassicalGuitarTablature http://classicalguitartablature.blogspot.com/
E|--------------------------------|------------------------------ 6|
B|------ 3---- 1------------------|------------------------------ 3|
G| 3-- 5 4---- 3------ 3------ 3 3|---- 5------ 3------ 3----------|
D| 3-- 3 3---- 2------ 1-- 1---- 1|---- 3------ 3-------------- 3--|
A|-------- 4-- 3------------------|--------------------------------|
E| 3------------------ 3----------| 2---- 5---- 6---------- 5------|

E|---------- 6---------- 6------ 5|------------ 5---------- 3------|
B|---------- 3------ 3---------- 3|-------- 3-- 3------ 3----------|
G|------ 3------ 3---------- 3----| 3------ 3-- 3-------------- 3--|
D|-- 5-------- 4------------------|-- 3-------- 2------------------|
A|--------------------------------| 3------------------------------|
E| 3------------------------------|--------------------------------|
ClassicalGuitarTablature http://classicalguitartablature.blogspot.com/
E|--------------------------------|--------------------------------|
B| 6---- 6------ 8------ 8------ 8|-------- 8------10----13--------|
G| 3------ 5---- 7------ 7------ 8|-------- 8------10----11--------|
D|---- 5 7-- 7-- 8-- 8------ 8-- 8|-- 8---- 8 8----1010--13--13----|
A| 3------ 5---- 6------ 7--------| 8------10------12----12--------|
E|--------------------------------|--------------------------------|
ClassicalGuitarTablature http://classicalguitartablature.blogspot.com/
E|--------------------------------| 8---------- 5------------------|
B|11----------11------------------| 8---------- 5---- 8------------|
G|10----------10------10------10--| 9-- 9------ 5---- 5------ 5----|
D| 8-- 8-------------- 8------ 9--|---------------------- 5--------|
A|10------ 8----------------------|------------ 7------------------|
E|------------10---------- 9------| 8------10----------------------|
ClassicalGuitarTablature http://classicalguitartablature.blogspot.com/
E|---------- 3--------------------|--------------------------------|
B| 6---------- 3---- 3---------- 4|-------- 4-- 3---- 1 1----------|
G| 5------ 5-- 3---- 3---------- 3|-------- 3-- 3---- 2 2------ 2--|
D|---- 7---------------- 5-- 5-- 3|-------- 3-- 1------ 1-- 1------|
A| 8---------- 6---------------- 5|------------ 3---- 2 2----------|
E|--------------------------------|--------------------------------|
ClassicalGuitarTablature http://classicalguitartablature.blogspot.com/
E|---- 5--------------------------|--------------------------------|
B|---- 6 6---- 6---- 3------------| 3------ 3----------------------|
G|---- 7-- 7-- 3---- 3------ 3----|-- 3------ 3------ 3------ 3-- 3|
D|------------ 6---------- 6---- 5|---- 5---- 4------ 4---- 4 4-- 3|
A|------------ 5---------------- 6|---------- 5--------------------|
E| 6------------------------------|---------------------- 4------ 3|
ClassicalGuitarTablature http://classicalguitartablature.blogspot.com/
E|--------------------------------|--------------------------------|
B|------ 3---- 1------------------|---- 1------ 3------------------|
G|-- 5-- 4---- 3------ 3---- 3-- 3|---- 2------ 2---------- 3------|
D|-- 3-- 3---- 2------ 2---- 1----| 1 1-------- 3------ 3----------|
A|------ 4---- 3------------------|------------ 1------------------|
E|---------------------- 3--------| 2-- 1------------------------ 6|
ClassicalGuitarTablature http://classicalguitartablature.blogspot.com/
E|-- 5----------------------------|--------------------------------|
B|-- 6-- 6-- 6------ 3---------- 3|--------------------------------|
G|-- 5-- 5-- 3------ 3------ 3-- 3|-- 3-------- 3------ 3 5---- 5--|
D|------ 5-- 3---------- 3------ 1|------------ 1-------------- 4--|
A|--------------------------------|--------------------------------|
E|------------ 4---------------- 3|------ 3---- 2---------- 5------|
ClassicalGuitarTablature http://classicalguitartablature.blogspot.com/
E|--------------------------------|--------------------------------|
B|------ 3---- 1------------------|--------------------------------|
G| 3-- 5 4---- 3------ 3------ 3 3|---- 5------ 3------ 3----------|
D| 3-- 3 3---- 2------ 1-- 1---- 1|---- 3------ 3-------------- 3--|
A|-------- 4-- 3------------------|--------------------------------|
E| 3------------------ 3----------| 2---- 5---- 6---------- 5------|
ClassicalGuitarTablature http://classicalguitartablature.blogspot.com/
E|--------------------------------|--------------------------------|
B|------ 3---- 1------------------|---- 1------ 3------ 3----------|
G| 3 5-- 4---- 3---- 3-------- 3--| 3-- 2------ 2------ 2---- 5----|
D| 3 3-- 3---------- 1-- 1--------| 1-- 1------ 3------ 3---- 3----|
A|------ 4---- 3------------------|------------ 1------------------|
E| 3---------------- 3------------| 2------ 1-------------- 5------|
ClassicalGuitarTablature http://classicalguitartablature.blogspot.com/
E|--------------------------------|--------------------------------|
B|-------- 3-- 1---- 1------------|-------- 1----------------------|
G| 3-- 5-- 4-- 3------ 3------ 3--| 3------ 3------ 3------ 3------|
D| 3-- 3-- 3-- 2------ 1-- 1------| 1------ 1-------- 5------ 5-- 4|
A|-------- 4-- 3------------------|---------------- 7------------ 6|
E| 3------------------ 3----------| 2------ 1----------------------|
ClassicalGuitarTablature http://classicalguitartablature.blogspot.com/
E|--------------------------------|--------------------------------|
B|--------------------------------|--------------------------------|
G|-------- 3------------ 3------ 2|-------- 3-------- 3------------|
D|---- 4---- 4-- 3-- 3-------- 3 2|---- 2---- 2---------- 1--------|
A| 6-------------- 5------------ 4|---------------- 3---------- 3--|
E|--------------------------------|--------------------------------|
ClassicalGuitarTablature http://classicalguitartablature.blogspot.com/
E|--------------------------------|--------------------------------|
B|--------------------------------|--------------------------------|
G|------ 3------ 3----------------|--------------------------------|
D|-- 1------ 1---- 0--------------|--------------------------------|
A| 2-------------- 1--------------|--------------------------------|
E|--------------------------------|--------------------------------|

0 ความคิดเห็น:

แสดงความคิดเห็น