To celebrate the anniversary, I am giving you (finally...) : iPhone LickByNeck !!!!!!

El Condor Pasa


Traditional Andean song fingerstyle chord melody solo guitar arrangement played in the key of Bm.

You need to install the Flash plugin - http://www.webestools.com/

El Condor Pasa played in the key of Bm.
ClassicalGuitarTablature http://classicalguitartablature.blogspot.com/
E| 0-------------------------- 2 0|--------------------------------|
B| 3 3 0---------------------- 0 3|-- 3 0--------------------------|
G| 4 4 2-------------- 2------ 1 4|-- 4 0--------------------------|
D|-- 4 0------ 0------ 1----------|-- 4 2------ 2------ 2---- 4----|
A|--------------------------------| 5------ 4------ 3------ 1------|
E| 3------ 2------ 1------ 0------|--------------------------------|
ClassicalGuitarTablature http://classicalguitartablature.blogspot.com/
E|---------------------------- 0--| 2---------------------- 7 5-- 2|
B|---------- 2---- 3-- 2-- 3------| 3---------------------- 5 5-- 3|
G| 4-- 3 4------ 4-------- 4------| 2-------------- 5---- 4-- 4----|
D| 4---- 4------ 4------ 2--------|---- 0------ 0------ 7----------|
A| 2------------------------------|---------------- 6---- 4------ 5|
E|-------- 5---- 4------ 3------ 2|-------- 0----------------------|
ClassicalGuitarTablature http://classicalguitartablature.blogspot.com/
E|------------------ 7-- 7---- 5--| 7------------------------------|
B|------ 2------------10 8---- 8--| 710 7-------------- 7-- 5-- 3--|
G| 2---------- 2---- 7 7 7---- 7--| 7-- 7-------------- 7-- 4-- 3--|
D|---- 4------ 2------ 7----------|---- 5------ 5------ 7-- 3-- 2--|
A|-------- 4----------------------|--------------------------------|
E|---------------- 8------ 7-- 6--| 7------ 6------ 5------ 4-- 3--|
ClassicalGuitarTablature http://classicalguitartablature.blogspot.com/
E|--------------------------------|--------------------------------|
B| 0---------------------- 3------|--------------------------------|
G| 2------------------ 1-- 3------| 4------------------ 2----------|
D|---- 0------ 1------ 0 5-- 5----|---- 4------ 5------ 0------ 4--|
A|---------------------- 6--------| 5------ 4------ 2------ 1------|
E| 2------ 1------ 0--------------|--------------------------------|
ClassicalGuitarTablature http://classicalguitartablature.blogspot.com/
E|-------------------------- 0-- 2|---------------------- 7-- 5----|
B| 0---------- 2-- 3-- 2-- 3---- 3|---------------------- 7-- 7-- 7|
G|---- 3 4-------- 4------ 1---- 2|-------------- 4------ 7------ 7|
D| 4---- 2------ 4-------- 0------|-- 2------ 2------ 4------------|
A| 2---- 4------ 5----------------|--------------------------------|
E|------------------------ 0---- 2|-------- 3---- 4------ 5------ 6|
ClassicalGuitarTablature http://classicalguitartablature.blogspot.com/
E|------------------ 7---------- 7| 5------------------------------|
B|------------------101012--10-- 7| 7 7-------------- 7---- 5------|
G|------------------ 9 910------ 6| 6 5-------------- 6---- 7-- 7--|
D|-- 5------ 5-------- 7 9--------|-- 7------ 7-------- 8-- 6------|
A|------------------------------ 5|------ 6-------- 7---- 8--------|
E|------ 7------ 8------ 9--------|--------------------------------|
ClassicalGuitarTablature http://classicalguitartablature.blogspot.com/
E|--------------------------------|------------------------------ 7|
B| 0---------------------- 7------| 5-- 0-------------------- 7-- 7|
G| 2------------------ 4-- 7------|-- 7 2-------------------- 5----|
D| 0-- 0------ 0------ 4------ 7 5|---- 0------ 0---- 0------ 4----|
A|--------------------------------|------ 2-------- 0--------------|
E| 2------ 3------ 4------ 5---- 6|------------------------ 4------|
ClassicalGuitarTablature http://classicalguitartablature.blogspot.com/
E|---------------- 7-- 5 7-- 9--10|-- 9 7----------------10-- 7-- 5|
B|----------10---- 8---- 8------12|---- 8---------------- 8-- 8----|
G| 7---------- 7-- 8------ 7------|---- 9------------------ 7 7----|
D|---- 9 7---- 7------------------|------------ 9------ 9------ 9--|
A|10---- 9-------- 8------ 7------|--------------------------------|
E|------------------------------10|-------- 9------ 8------ 7------|
ClassicalGuitarTablature http://classicalguitartablature.blogspot.com/
E|------------------------ 7------|---------------------------- 2--|
B| 3---------------------- 8--10 7|-------------------------- 3----|
G|---- 2------ 0------ 2-- 1-- 9--| 7---------------- 2-- 2---- 3--|
D|-------------------- 0------10--|---- 7---- 7------ 4-- 2--------|
A| 0---------------------- 7-- 8--| 9------ 7---- 5------ 4---- 3--|
E|-------- 3------ 2--------------|--------------------------------|
ClassicalGuitarTablature http://classicalguitartablature.blogspot.com/
E| 7-------- 5---- 7-- 5-- 7------| 7----------------------10-- 7 5|
B| 8---------- 7-- 3------10--10--| 8---------------------- 8---- 5|
G| 7---------- 7 4------ 7---- 7--| 7---------- 5------ 4 9------ 4|
D|---- 9---------------------- 7--|---- 9------ 7------ 5----------|
A|---------------------- 9--------| 7------ 6------ 5--------------|
E| 7------ 5---- 3----------------|---------------------- 9--------|
ClassicalGuitarTablature http://classicalguitartablature.blogspot.com/
E|------------------ 7-- 7---- 5--| 7------------------------------|
B|------------------ 8-- 7---- 8--| 710 7-------------- 7-- 5-- 3--|
G|---- 4------ 4---- 7---- 7-- 7--| 7-- 7-------------- 7-- 4------|
D|-- 4-------- 4------------------|---- 5------ 5------ 7 3--------|
A| 5---- 4------------------------|--------------------------------|
E|---------------- 7------ 5-- 6 7|-------- 6------ 5---- 4--------|
ClassicalGuitarTablature http://classicalguitartablature.blogspot.com/
E| 0-------------------------- 2 0|--------------------------------|
B| 3 3 0---------------------- 0 3|-- 3 0--------------------------|
G| 4 4 2-------------- 2------ 1 4|-- 4 0--------------------------|
D|-- 4 0------ 0------ 1----------|-- 4 2------ 2------ 2------ 4--|
A|--------------------------------| 5------ 4------ 3------ 1------|
E| 3------ 2------ 1------ 0------|--------------------------------|
ClassicalGuitarTablature http://classicalguitartablature.blogspot.com/
E|--------------------------------|--------------------------------|
B| 0---------- 2-- 3 2---- 3-- 5--|-- 7----------------------------|
G| 2-- 3-- 4-- 4-- 3 2---- 0-- 6--| 6------------------------------|
D| 0-- 2-- 4-- 4-- 2-- 0-- 0-- 5--| 7------------------------------|
A| 2-- 1---------------------- 6 5|--------------------------------|
E|-------- 5-- 4-- 3-- 2-- 0------|--------------------------------|

0 ความคิดเห็น:

แสดงความคิดเห็น