To celebrate the anniversary, I am giving you (finally...) : iPhone LickByNeck !!!!!!

Enter Sandman

Metallica's "Enter Sandman" arranged in swing style.
http://classicalguitartablature.blogspot.com/
http://classicalguitartablature.blogspot.com/
Enter Sandman by Metallica arranged in swing style.

ClassicalGuitarTablature http://classicalguitartablature.blogspot.com/
E|--------------------------------|--------------------------------|
B|--------------------------------|--------------------------------|
G|---- 5---------- 5------ 5------| 5---- 5---- 5---------- 5------|
D|---- 2-------- 3 3------ 3------| 4---- 4---- 3---------- 3------|
A|--------------------------------|--------------------------------|
E| 5---------------------------- 5|---------------------- 5------ 0|
ClassicalGuitarTablature http://classicalguitartablature.blogspot.com/
E|--------------------------------|--------------------------------|
B|-------- 5------ 5-- 5----------| 5-- 5------ 6------------------|
G|-------- 5---------- 5----------| 5-- 5-------- 7------ 6 7------|
D|---- 2-------- 3 3--------------| 4---- 4------ 7------ 6 6------|
A|--------------------------------|--------------------------------|
E| 0---------- 5---------- 5---- 5|-------------- 7---- 0 0 6------|
ClassicalGuitarTablature http://classicalguitartablature.blogspot.com/
ClassicalGuitarTablature http://classicalguitartablature.blogspot.com/
E|-------- 5 4--------------------|-------- 5----------------------|
B|-------- 5-- 4-- 3-- 3----------|-------- 5-- 4 3---- 3----------|
G|------------ 7-- 4-- 5---- 5 4--|------------ 6-- 5-- 5---- 5----|
D|---- 7------ 5-- 4-- 4------ 0--|---- 7------ 5-- 4---------- 0--|
A|------------ 6-- 5------ 0---- 5|------------ 6-- 5--------------|
E| 5---------------------- 4 3 0 5|------------------------ 4 0----|
ClassicalGuitarTablature http://classicalguitartablature.blogspot.com/
E|------ 5------------------------|--------------------------------|
B|-------- 5-- 4 3-------------- 1|-------- 0---- 0---- 1 0--------|
G|------------ 6 5---- 5----------|---- 2------ 2 1---- 1 1--------|
D|---- 7------ 6 4----------------|--------------------------------|
A|------------ 6 5----------------|--------------------------------|
E| 5---------------------- 3 2-- 2|-------- 1---- 0---------- 0 5--|
ClassicalGuitarTablature http://classicalguitartablature.blogspot.com/
E|-------- 5----------------------|------ 5------------------------|
B|-------- 5-- 4 3----------------|---------- 5-- 3------------ 3--|
G|------------ 6 5------ 0------ 2|---- 1-------- 4------------ 3 2|
D|---- 7------ 5 4-------------- 3|-------------- 2------------ 2 2|
A|------------ 6 5----------------|------ 4------ 3------ 0 1------|
E|------------------------ 4-- 3--|---- 2---------------- 2------ 0|
ClassicalGuitarTablature http://classicalguitartablature.blogspot.com/
E|------ 5------------------------|--------------------------------|
B|------ 5---- 4 3 3-- 3-------- 1|-------- 0------ 0---- 1 0------|
G|---- 2-- 5-- 2-- 1-- 0----------|------ 2------ 2 1---- 1 1------|
D|-------- 3-- 4 3 3--------------|--------------------------------|
A|------------ 2-- 1--------------|--------------------------------|
E|-1-- 0------------------ 1-- 0--|------ 1 1 1-- 0 0------------ 5|
ClassicalGuitarTablature http://classicalguitartablature.blogspot.com/
E|---- 8-- 8---- 8----------------|---------------------------- 5--|
B|---- 5-- 6---- 6------ 8----10--|----10----10--10------ 8---- 6--|
G|---- 5-------- 7------ 7---- 9--|---- 9---- 9-- 9------ 7---- 7--|
D|--------------------------------|----10----10-- 7------ 6--------|
A|---------------------------- 9--|--------------------------------|
E|-------- 5-- 7 8----------------|------------ 0 8---- 0 0------ 7|
ClassicalGuitarTablature http://classicalguitartablature.blogspot.com/
E|------------------------------ 5|--------------------------------|
B|----------10--10---- 6-- 8---- 5|------------------------ 8------|
G|---------- 9-- 7---- 0-- 7---- 5|-------------------- 7-- 7------|
D|---- 0-------- 9-------- 6------|-------------------- 7-- 6------|
A|------ 8------ 7-- 0------------|---------------- 0------ 7------|
E|---- 0 0------ 0------ 0 6---- 5|------ 5 6-- 0 0------------ 5--|
ClassicalGuitarTablature http://classicalguitartablature.blogspot.com/
E|---- 8---- 8-- 8------ 8---- 8--|------ 8-- 8---- 8------ 8---- 8|
B|---- 5---- 6-- 7------ 8--------|------10--10----10--------------|
G|---- 5-------- 7------ 6---- 9--|------------ 9-- 9------ 7---- 8|
D|--------------------------------|--------------------------------|
A|-------------------- 0 7---- 9--|-------- 9----------------------|
E|-------- 7-- 0-- 0--------------|---------------- 8-- 0-- 6---- 7|
ClassicalGuitarTablature http://classicalguitartablature.blogspot.com/
E|---- 8---- 8 7-- 7 8 8-- 8---- 7|---- 5--------------------------|
B|---- 6---- 8-------- 8-- 8---- 5|------ 5------------10----------|
G|---------------- 7-- 7-- 7---- 5|-------------------- 9----------|
D|------ 0------------------------|-------------------- 8----------|
A|-------- 7 8 8-- 7--------------|------------ 0-- 9--------------|
E|------ 0 0------ 1------ 6---- 5|------------ 5 0----------------|
ClassicalGuitarTablature http://classicalguitartablature.blogspot.com/
E|------ 7-------- 7---- 7-- 7----| 7---- 7--------10-- 9------ 7--|
B|------ 7-------- 7---- 7-- 7----| 7---- 8-------- 8-- 8------ 8 7|
G|------ 7-------- 7---- 7---- 7--|-------- 7------ 7-- 7----------|
D|--------------------------------|--------------------------------|
A|--------------------------------|--------------------------------|
E| 7------------ 7-------- 7------| 7---------- 7-- 7--------------|
ClassicalGuitarTablature http://classicalguitartablature.blogspot.com/
E|------ 7--------10 9 9 7------10|---- 9 5------ 7----------------|
B|-- 8-- 9-------- 9-- 9 9------10|---- 9 7------ 7---- 7----------|
G|---- 7---------- 7-- 7-- 7---- 7|---- 7-- 7---- 7---- 8----------|
D|--------------------------------|------------------ 0 7----------|
A|--------------------------------|---------------------- 8---- 6 6|
E| 7---------- 7-------------- 7--| 7---------- 7-- 7--------------|
ClassicalGuitarTablature http://classicalguitartablature.blogspot.com/
E|---- 7-------- 5----------------| 7-- 7--------------------------|
B|---- 5-------- 5----------------| 7-- 7-------------- 3----------|
G|---- 7-------- 6---- 5----------| 6-- 6-------------- 4----------|
D|--------------------------------|-------------------- 4----------|
A|------------------------ 6-- 0--| 5-------------------------- 8 9|
E|------------ 0-- 0------------ 0|-------- 4 3 3---------- 3------|
ClassicalGuitarTablature http://classicalguitartablature.blogspot.com/
E|-------------- 5------ 5------ 8|---- 5--------------------------|
B|----12-------- 6------ 6------ 5|---- 5------ 4-- 3---- 1--------|
G|---- 9---------------- 5------ 5|---- 5------ 3-- 3------ 3------|
D|----10---- 0--------------------|---------- 0 4-- 3------ 2----10|
A|--------------------------------|------------------------------ 8|
E|---------- 0-- 0-- 0-- 6------ 5|------------ 5-- 3-- 0-- 0 0----|
ClassicalGuitarTablature http://classicalguitartablature.blogspot.com/
E|-------- 5---------- 5-- 3------|------ 5------------------------|
B|10--10-- 5-- 5-- 8------ 5------|------ 5---- 4 3----------------|
G|-------- 7-------------- 5------|------------ 6 5---- 5---- 5----|
D|--------------------------------|---- 7------ 5 4---- 4------ 0--|
A|--------------------------------|------------ 6-- 5--------------|
E|-------- 7------ 6------ 5-- 5--|------------------------ 4------|
ClassicalGuitarTablature http://classicalguitartablature.blogspot.com/
E|--------------------------------|-------- 5----------------------|
B|-------- 5-- 4-- 3--------------|-------- 5-- 4 3---- 3------ 1--|
G|---------------- 5-- 5---- 5----|------------ 6 5---- 5----------|
D|------ 7 6-- 5-- 4-- 4------ 0--|---- 7------ 5 4---- 4----------|
A|------------ 6-- 5--------------|------------ 6-- 5--------------|
E| 5---- 4---------------- 4 3----| 5---------------------- 4-- 2--|
ClassicalGuitarTablature http://classicalguitartablature.blogspot.com/
E|--------------------------------|------ 5------------------------|
B|-------- 0---- 0---- 1 0--------|------ 5---- 5 3----------------|
G|---- 2------ 2 1---- 1 0--------|---------- 5-- 4 5-- 5---- 5-- 2|
D|--------------------------------|---- 7------ 6 4---- 4------ 4 3|
A|--------------------------------|------------ 6------------------|
E|---- 1-- 1-- 0-- 0---------- 5--|---------------------- 4---- 2--|
ClassicalGuitarTablature http://classicalguitartablature.blogspot.com/
E|------ 5------------------------|-------- 5----------------------|
B|------ 5---- 5 3---- 3---- 3----|-------- 5-- 4-- 3---------- 1--|
G|---- 2-- 4---- 4---- 4---- 3----| 2-- 2------ 2-- 1---------- 2--|
D|---------------- 2-- 2---- 2----| 2-- 0-- 3-- 4-- 3--------------|
A|-------- 3----------------------|------------ 2-- 1---- 0--------|
E| 3-- 1------------------ 2------| 1-- 0-------------- 0-- 1-- 2--|
ClassicalGuitarTablature http://classicalguitartablature.blogspot.com/
E|--------------------------------|--------------------------------|
B|-------- 0------ 0-- 1 0--------|--------------------------------|
G|---- 2------ 2-- 1-- 0 1---- 2--|------------ 2---------- 2---- 2|
D|---------------------------- 2--|-------- 2---------- 2------ 2--|
A|--------------------------------|--------------------------------|
E|---- 1-- 0-- 0-- 0---------- 5--|--------------------------------|
ClassicalGuitarTablature http://classicalguitartablature.blogspot.com/
E|--------------------------------|--------------------------------|
B|--------------------------------|--------------------------------|
G|------------ 2-------- 2------ 2|------------ 2------------------|
D| 2------ 3---------- 3------ 3--| 3------ 4---------- 4 6-- 7 7--|
A|--------------------------------|--------------------------------|
E| 5------------------------------| 5---------------- 0------------|
ClassicalGuitarTablature http://classicalguitartablature.blogspot.com/
E|--------------------------------|--------------------------------|
B|------------ 4------------------|--------------------------------|
G|------------ 4------------------|--------------------------------|
D|------------ 7------------------|--------------------------------|
A|--------------------------------|--------------------------------|
ClassicalGuitarTablature http://classicalguitartablature.blogspot.com/

0 ความคิดเห็น:

แสดงความคิดเห็น