To celebrate the anniversary, I am giving you (finally...) : iPhone LickByNeck !!!!!!

Feliz Navidad


Feliz Navidad played in the key of A.
ClassicalGuitarTablature http://classicalguitartablature.blogspot.com/
E|--------------------------------|------------ 0-- 5------ 4-- 5 2|
B| 2------------------------------|------------ 0-- 7------ 6-- 5--|
G| 2---------- 4------ 2----------|---- 2------ 0------ 6-- 4-- 4--|
D|---- 2------ 2------ 2------ 2--|---- 0--------------------------|
A|--------------------------------|---------------- 6------ 5-- 4--|
E| 5------ 4------ 3------ 2------| 1------ 0----------------------|
ClassicalGuitarTablature http://classicalguitartablature.blogspot.com/
E|--------------------------------|------------ 2-- 7--------------|
B| 2------------------------------| 5---------- 5-- 7------10------|
G| 2------------------------------| 4---------- 4-- 7------11--11--|
D|---- 4------ 2------ 2------ 2--|---- 2---------------- 7 9------|
A| 5------ 4------ 2--------------|--------------------------------|
E|---------------------- 5--------| 4------ 2------ 0------10------|
ClassicalGuitarTablature http://classicalguitartablature.blogspot.com/
ClassicalGuitarTablature http://classicalguitartablature.blogspot.com/
E|--------------------------------|------------ 0 5------ 4---- 5--|
B| 5------------------------------|------------ 0 3------ 7------ 7|
G| 2-------------- 6--------------| 2---------- 2 4------ 6--------|
D|------ 2------ 2---- 6------ 6--|---- 2-------------- 2----------|
A| 4------ 2----------------------|------------------------ 6------|
E|---------------- 5------ 4------| 2------ 1---- 0----------------|
ClassicalGuitarTablature http://classicalguitartablature.blogspot.com/
E|--------------------------------|--------------------------------|
B|------------ 3-- 7---- 7---- 7--| 5---- 5---- 5-- 3-- 3---- 5-- 2|
G| 6---------- 3-- 7---- 6---- 7--| 4---- 4---- 3-- 2-- 1---- 4-- 2|
D|---- 7------ 2-- 7---- 5---- 7--| 2---- 3---- 2-- 1-- 0---- 6----|
A| 5------ 4-- 3------------------|---------------------------- 5--|
E|---------------- 7---- 6---- 5--| 4---- 3---- 2-- 1---- 0------ 5|
ClassicalGuitarTablature http://classicalguitartablature.blogspot.com/
E|--------------------------------|------------ 0-- 5------ 4-- 5 2|
B|--------------------------------|------------ 0-- 7------ 6-- 5--|
G|------------ 4------ 2----------|---- 2------ 0------ 6-- 4-- 4--|
D|---- 2------ 2------ 2------ 2--|---- 0--------------------------|
A|--------------------------------|---------------- 6------ 5-- 4--|
E|------ 4------ 3-------- 2------| 1------ 0----------------------|
ClassicalGuitarTablature http://classicalguitartablature.blogspot.com/
E|--------------------------------|------------ 2-- 7--------------|
B| 2------------------------------| 5---------- 5-- 7------10------|
G| 2------------------------------| 4---------- 4-- 7------11--11--|
D|---- 4------ 2------ 2------ 2--|---- 2---------------- 7 9------|
A| 5------ 4------ 2--------------|--------------------------------|
E|---------------------- 5--------| 4------ 2------ 0------10------|
ClassicalGuitarTablature http://classicalguitartablature.blogspot.com/
E|--------------------------------|------------ 0 5------ 4---- 5--|
B| 5------------------------------|------------ 0 3------ 7------ 7|
G| 2-------------- 6--------------| 2---------- 2 4------ 6--------|
D|------ 2------ 2---- 6------ 6--|---- 2-------------- 2----------|
A| 4------ 2----------------------|------------------------ 6------|
E|---------------- 5------ 4------| 2------ 1---- 0----------------|
ClassicalGuitarTablature http://classicalguitartablature.blogspot.com/
E|--------------------------------|--------------------------------|
B|------------ 3-- 7---- 7---- 7--| 5---- 5---- 5-- 3-- 3---- 5-- 2|
G| 6---------- 3-- 7---- 6---- 7--| 4---- 4---- 3-- 2-- 1---- 4-- 2|
D|---- 7------ 2-- 7---- 5---- 7--| 2---- 3---- 2-- 1-- 0---- 6----|
A| 5------ 4-- 3------------------|---------------------------- 5--|
E|---------------- 7---- 6---- 5--| 4---- 3---- 2-- 1---- 0------ 5|
ClassicalGuitarTablature http://classicalguitartablature.blogspot.com/
E|--------------------------------|---- 9 9---- 9-- 9-- 7---- 5----|
B|--------------------------------|---- 9 8---- 8-- 7---- 6-- 5----|
G|------------ 4------ 2----------|---- 7 7-------- 6---- 4-- 4----|
D|---- 2------ 2------ 2------ 2--|--------------------------------|
A|------------------------------ 8|------ 7-------- 6---- 5-- 4----|
E|------ 4------ 3-------- 2------|--------------------------------|
ClassicalGuitarTablature http://classicalguitartablature.blogspot.com/
E|--------------------------------|-- 7-- 7---- 7 7----------------|
B|10------ 7-- 7------ 7----------|---- 7 5---- 5 7------10-- 7----|
G|11------ 9-- 7------ 6----------|---- 7 5---- 5-- 7---- 7-- 8----|
D|---- 9-- 8-- 7------ 5------ 5--|---------------------- 7-- 7----|
A|--------------------------------|--------------------------------|
E|10------ 9------ 7------ 6------| 5---- 4-------- 5---- 7---- 8--|
ClassicalGuitarTablature http://classicalguitartablature.blogspot.com/
E|--------------------------------|---- 9-- 9-- 9-- 9--------------|
B| 7---------- 5------ 5----------|---- 9------ 9--12--12------10--|
G| 9------ 9-- 7------ 7----------|---- 9-- 9-- 9-- 9-- 9------ 7--|
D|---- 7-- 7-- 7------ 5------ 5--|-------------------- 9------ 7--|
A|--------------------------------|12------11------10------ 9------|
E| 9------ 8------ 7------ 6------|--------------------------------|
ClassicalGuitarTablature http://classicalguitartablature.blogspot.com/
E|------------------------ 7-- 5 4|------ 4------ 5-------- 7------|
B|10------ 7-- 7------ 7-- 7-- 7--| 5---- 4-------- 3------ 8------|
G| 7------ 6-- 6------ 6-- 6-- 6--| 4---------- 2------ 4-- 7------|
D|---- 9-- 7-- 7------ 7----------|---- 4---------------------- 6--|
A| 8------ 7------ 6------ 5------| 4------ 3------ 2--------------|
E|--------------------------------|------------------------ 6------|
ClassicalGuitarTablature http://classicalguitartablature.blogspot.com/
E| 5------------------------------|---- 9 9---- 9-- 9-- 7---- 5----|
B| 5------------------------------|---- 9 8---- 8-- 7---- 6-- 5----|
G| 4------------------ 2----------|---- 7 7-------- 6---- 4-- 4----|
D|---- 4------ 4------ 2------ 2--|--------------------------------|
A|------------------------------ 8|------ 7-------- 6---- 5-- 4----|
E| 5------ 4---- 3-------- 2------|--------------------------------|
ClassicalGuitarTablature http://classicalguitartablature.blogspot.com/
E|--------------------------------|-- 7-- 7---- 7 7----------------|
B|10------ 7-- 7------ 7----------|---- 7 5---- 5 7------10-- 7----|
G|11------ 9-- 7------ 6----------|---- 7 5---- 5-- 7---- 7-- 8----|
D|---- 9-- 8-- 7------ 5------ 5--|---------------------- 7-- 7----|
A|--------------------------------|--------------------------------|
E|10------ 9------ 7------ 6------| 5---- 4-------- 5---- 7---- 8--|
ClassicalGuitarTablature http://classicalguitartablature.blogspot.com/
E|--------------------------------|---- 9-- 9-- 9-- 9--------------|
B| 7---------- 5------ 5----------|---- 9------ 9--12--12------10--|
G| 9------ 9-- 7------ 7----------|---- 9-- 9-- 9-- 9-- 9------ 7--|
D|---- 7-- 7-- 7------ 5------ 5--|-------------------- 9------ 7--|
A|--------------------------------|12------11------10------ 9------|
E| 9------ 8------ 7------ 6------|--------------------------------|
ClassicalGuitarTablature http://classicalguitartablature.blogspot.com/
E|------------------------ 7-- 5 4|------ 4------ 5-------- 7------|
B|10------ 7-- 7------ 7-- 7-- 7--| 5---- 4-------- 3------ 8------|
G| 7------ 6-- 6------ 6-- 6-- 6--| 4---------- 2------ 4-- 7------|
D|---- 9-- 7-- 7------ 7----------|---- 4---------------------- 6--|
A| 8------ 7------ 6------ 5------| 4------ 3------ 2--------------|
E|--------------------------------|------------------------ 6------|
ClassicalGuitarTablature http://classicalguitartablature.blogspot.com/
E| 5------------------------------|---- 9-- 9-- 9-- 9--------------|
B| 5------------------------------|---- 9------ 9--12--12------10--|
G| 4-------------- 2 2-------- 4--|---- 9-- 9-- 9-- 9-- 9------ 7--|
D|---- 4------ 4------ 2------ 2--|-------------------- 9------ 7--|
A|--------------------------------|12------11------10------ 9------|
E| 5------ 4------ 3------ 4------|--------------------------------|
ClassicalGuitarTablature http://classicalguitartablature.blogspot.com/
E|------------------------ 7-- 5 4|------ 4------ 5-------- 7------|
B|10------ 7-- 7------ 7-- 7-- 7--| 5---- 4-------- 3------ 8------|
G| 7------ 6-- 6------ 6-- 6-- 6--| 4---------- 2------ 4-- 7------|
D|---- 9-- 7-- 7------ 7----------|---- 4---------------------- 6--|
A| 8------ 7------ 6------ 5------| 4------ 3------ 2--------------|
E|--------------------------------|------------------------ 6------|
ClassicalGuitarTablature http://classicalguitartablature.blogspot.com/
E| 5------------------------------|---- 9-- 9-- 9-- 9--------------|
B| 5------------------------------|---- 9------ 9--12--12------10--|
G| 4-------------- 2 2-------- 4--|---- 9-- 9-- 9-- 9-- 9------ 7--|
D|---- 4------ 4------ 2------ 2--|-------------------- 9------ 7--|
A|--------------------------------|12------11------10------ 9------|
E| 5------ 4------ 3------ 4------|--------------------------------|
ClassicalGuitarTablature http://classicalguitartablature.blogspot.com/
E|------------------------ 7-- 5 4|------ 4------ 5-------- 7------|
B|10------ 7-- 7------ 7-- 7-- 7--| 5---- 4-------- 3------ 8------|
G| 7------ 6-- 6------ 6-- 6-- 6--| 4---------- 2------ 4-- 7---- 4|
D|---- 9-- 7-- 7------ 7----------|---- 4---------------------- 6--|
A| 8------ 7------ 6------ 5------| 4------ 3------ 2--------------|
E|--------------------------------|------------------------ 6------|
ClassicalGuitarTablature http://classicalguitartablature.blogspot.com/
E| 5------------------------------|--------------------------------|
B| 4-------------- 3---------- 2--| 2------------------------------|
G|---------------- 3------------ 2| 2------------------------------|
D| 4-------------- 3------------ 2| 2------------------------------|
A| 0------------------------------|--------------------------------|
E|--------------------------------|--------------------------------|
ClassicalGuitarTablature http://classicalguitartablature.blogspot.com/
E|--------------------------------|--------------------------------|
B|--------------------------------|--------------------------------|
G|--------------------------------|--------------------------------|
D|--------------------------------|--------------------------------|
A|--------------------------------|--------------------------------|
E|--------------------------------|--------------------------------|
ClassicalGuitarTablature http://classicalguitartablature.blogspot.com/

0 ความคิดเห็น:

แสดงความคิดเห็น