To celebrate the anniversary, I am giving you (finally...) : iPhone LickByNeck !!!!!!

The First Noel


The First Noel played in the key of D.
ClassicalGuitarTablature http://classicalguitartablature.blogspot.com/
E|10------ 9------ 7------| 5---- 7------ 9------10|
B| 7------ 8------ 7------| 5---- 5------10------ 9|
G| 7------ 6------ 7------| 4---------- 4 9--------|
D|---- 9------ 8------ 7--|---- 4--------------11--|
A|------------------------|-------------- 9------ 8|
E| 7------ 6------ 5------| 4---- 3----------------|
ClassicalGuitarTablature http://classicalguitartablature.blogspot.com/
E|------------------------|-------------- 2--------|
B|------10-------- 8------| 7-------------- 3-- 5--|
G|---- 7 7-------- 6------| 6-------------- 3-- 4--|
D|------------ 9 8---- 8--|---- 7------ 7------ 3--|
A|-------- 7------ 6------| 5------ 4------ 3-- 4--|
E|------------------------|------------------------|
ClassicalGuitarTablature http://classicalguitartablature.blogspot.com/
E|------------------------| 5------------ 7---- 910|
B| 3---------- 5-- 7-- 8--| 2------------ 7------ 8|
G| 2---------- 2-- 7------| 2---------- 2 7------ 7|
D|---- 4------ 2-- 5------|---- 2------ 2----------|
A| 5------ 4--------------| 0------------ 9------ 7|
E|---------------- 7------|-------- 3--------------|
ClassicalGuitarTablature http://classicalguitartablature.blogspot.com/
E|------ 9------ 7------ 5|-------------------- 9--|
B|------12------ 8------ 8|----------------12------|
G|------------12 9--------| 7--------------11------|
D|---- 9-------------- 9--|---- 5------ 5----------|
A|------------------------|----------------10------|
E|--------10---- 9--------| 7----------------------|
ClassicalGuitarTablature http://classicalguitartablature.blogspot.com/
E|10---- 9------ 7------ 5|------ 7------ 9--------|
B| 7---- 8------ 8------ 2|------ 7------ 7--------|
G| 7---------- 9------ 7 2|------ 7------ 7--------|
D|---- 7------------------|---- 2------ 7------ 7--|
A| 9------ 7---- 5------ 4|------------------------|
E|------------------------|------ 7-------- 5------|
ClassicalGuitarTablature http://classicalguitartablature.blogspot.com/
E|10----------------------|-------------- 2---- 0--|
B|12------10------ 8---- 7|-------------- 3------ 3|
G|11------ 8------ 6---- 6|-------------- 3------ 2|
D|----12------ 7------ 5--|---- 7------ 7----------|
A|10------ 9------ 7---- 5|------ 4------ 3--------|
E|------------------------|------------------------|
ClassicalGuitarTablature http://classicalguitartablature.blogspot.com/
E|---------------------- 5|----------------10-- 9 7|
B|------------ 5 7---- 8 5|---------------- 7------|
G|------------ 7-- 7------| 4---------- 4-- 7------|
D|---- 4------ 5-- 7------|---- 4------------------|
A| 2----------------------|---------------- 9------|
E|-------- 6------ 5---- 4|-------- 3--------------|
ClassicalGuitarTablature http://classicalguitartablature.blogspot.com/
E|-------------- 7--------|------------------------|
B| 9------------ 7------10|------------------------|
G| 7------------ 6------ 9|-------------------- 9--|
D|---- 9------ 9------ 5--|---- 9------ 9------ 8--|
A| 8------ 7---- 6--------|------------------------|
E|----------------------10|-------- 9------ 8------|
ClassicalGuitarTablature http://classicalguitartablature.blogspot.com/
E|10------ 9------ 7------| 5---- 7------ 9------10|
B| 7------ 8------ 7------| 5---- 5------10------ 9|
G| 7------ 6------ 7------| 4---------- 4 9--------|
D|---- 9------ 8------ 7--|---- 4--------------11--|
A|------------------------|-------------- 9------ 8|
E| 7------ 6------ 5------| 4---- 3----------------|
ClassicalGuitarTablature http://classicalguitartablature.blogspot.com/
E|------------------------|-------------- 2--------|
B|------10-------- 8------| 7-------------- 3-- 5--|
G|---- 7 7-------- 6------| 6-------------- 3-- 4--|
D|------------ 9 8---- 8--|---- 7------ 7------ 3--|
A|-------- 7------ 6------| 5------ 4------ 3-- 4--|
E|------------------------|------------------------|
ClassicalGuitarTablature http://classicalguitartablature.blogspot.com/
E|------------------------| 5------------ 7---- 910|
B| 3---------- 5-- 7-- 8--| 2------------ 7------ 8|
G| 2---------- 2-- 7------| 2---------- 2 7------ 7|
D|---- 4------ 2-- 5------|---- 2------ 2----------|
A| 5------ 4--------------| 0------------ 9------ 7|
E|---------------- 7------|-------- 3--------------|
ClassicalGuitarTablature http://classicalguitartablature.blogspot.com/
E|------ 9------ 7------ 5|-------------------- 9--|
B|------12------ 8------ 8|----------------12------|
G|------------12 9--------| 7--------------11------|
D|---- 9-------------- 9--|---- 5------ 5----------|
A|------------------------|----------------10------|
E|--------10---- 9--------| 7----------------------|
ClassicalGuitarTablature http://classicalguitartablature.blogspot.com/
E|10---- 9------ 7------ 5|------ 7------ 9--------|
B| 7---- 8------ 8------ 2|------ 7------ 7--------|
G| 7---------- 9------ 7 2|------ 7------ 7--------|
D|---- 7------------------|---- 2------ 7------ 7--|
A| 9------ 7---- 5------ 4|------------------------|
E|------------------------|------ 7-------- 5------|
ClassicalGuitarTablature http://classicalguitartablature.blogspot.com/
E|10----------------------|-------------- 2---- 0--|
B|12------10------ 8---- 7|-------------- 3------ 3|
G|11------ 8------ 6---- 6|-------------- 3------ 2|
D|----12------ 7------ 5--|---- 7------ 7----------|
A|10------ 9------ 7---- 5|------ 4------ 3--------|
E|------------------------|------------------------|
ClassicalGuitarTablature http://classicalguitartablature.blogspot.com/
E|---------------------- 5|----------------10-- 9 7|
B|------------ 5 7---- 8 5|---------------- 7------|
G|------------ 7-- 7------| 4---------- 4-- 7------|
D|---- 4------ 5-- 7------|---- 4------------------|
A| 2----------------------|---------------- 9------|
E|-------- 6------ 5---- 4|-------- 3--------------|
ClassicalGuitarTablature http://classicalguitartablature.blogspot.com/
E|-------------- 7--------|------------------------|
B| 9------------ 7------10|------------------------|
G| 7------------ 6------ 9|-------------------- 9--|
D|---- 9------ 9------ 5--|---- 9------ 9------ 8--|
A| 8------ 7---- 6--------|------------------------|
E|----------------------10|-------- 9------ 8------|
ClassicalGuitarTablature http://classicalguitartablature.blogspot.com/
E|10------ 9------ 7------| 5---- 7------ 9------10|
B| 7------ 8------ 7------| 5---- 5------10------ 9|
G| 7------ 6------ 7------| 4---------- 4 9--------|
D|---- 9------ 8------ 7--|---- 4--------------11--|
A|------------------------|-------------- 9------ 8|
E| 7------ 6------ 5------| 4---- 3----------------|
ClassicalGuitarTablature http://classicalguitartablature.blogspot.com/
E|------------------------|------------------------|
B|------10-------- 8------| 7----------------------|
G|---- 7 7-------- 6------| 6------------------ 3--|
D|------------ 9 8---- 8--|---- 7------ 7------ 2--|
A|-------- 7------ 6------| 5------ 4------ 3------|
E|------------------------|------------------------|
ClassicalGuitarTablature http://classicalguitartablature.blogspot.com/
E|10------ 9------ 7------| 5---- 7------ 9------10|
B| 7------ 8------ 7------| 5---- 5------10------ 9|
G| 7------ 6------ 7------| 4---------- 4 9--------|
D|---- 9------ 8------ 7--|---- 4--------------11--|
A|------------------------|-------------- 9------ 8|
E| 7------ 6------ 5------| 4---- 3----------------|
ClassicalGuitarTablature http://classicalguitartablature.blogspot.com/
E|------------------------|------------------------|
B|------10-------- 8------| 7----------------------|
G|---- 7 7-------- 6------| 6------------------ 3--|
D|------------ 9 8---- 8--|---- 7------ 7------ 2--|
A|-------- 7------ 6------| 5------ 4------ 3------|
E|------------------------|------------------------|
ClassicalGuitarTablature http://classicalguitartablature.blogspot.com/
E|10------ 9------ 7------| 5---- 7------ 9------10|
B| 7------ 8------ 7------| 5---- 5------10------ 9|
G| 7------ 6------ 7------| 4---------- 4 9--------|
D|---- 9------ 8------ 7--|---- 4--------------11--|
A|------------------------|-------------- 9------ 8|
E| 7------ 6------ 5------| 4---- 3----------------|
ClassicalGuitarTablature http://classicalguitartablature.blogspot.com/
E|------------------------|------------------------|
B|------10-------- 8------|-- 7--------------------|
G|---- 7 7-------- 6------| 4----------------------|
D|------------ 9 8---- 8--| 4----------------------|
A|-------- 7------ 6------| 5----------------------|
E|------------------------|------------------------|
ClassicalGuitarTablature http://classicalguitartablature.blogspot.com/
E|------------------------|------------------------|
B|------------------------|------------------------|
G|------------------------|------------------------|
D|------------------------|------------------------|
A|------------------------|------------------------|
E|------------------------|------------------------|

0 ความคิดเห็น:

แสดงความคิดเห็น