To celebrate the anniversary, I am giving you (finally...) : iPhone LickByNeck !!!!!!

Frosty The Snowman


Frosty The Snowman played in the key of A
ClassicalGuitarTablature http://classicalguitartablature.blogspot.com/
E|-------------------- 5---- 4 5--| 7 5---------------------- 4 5--|
B| 5---- 2---- 3-- 5-- 5---- 7 7--| 7-- 7-- 9 7---- 5-------- 7----|
G| 2---- 2---- 2-- 6-------- 6-- 6| 6-- 6-- 7-- 7-- 6------ 6 6 6--|
D| 2 2---- 2------ 7--------------|-------- 9------ 7-- 7----------|
A| 0------ 4------ 7------ 6------| 5------ 7-------------- 6------|
E|--------------------------------|---------------- 5--------------|
ClassicalGuitarTablature http://classicalguitartablature.blogspot.com/
E| 7 5-------------- 5-------- 2--|--------------------------------|
B| 7-- 7-- 9-- 7 5------ 2-- 5 2--| 5 3---- 2 3---- 5------ 7------|
G| 6-- 6-- 7-- 7 4-------- 2------| 2 2---- 1-- 1-- 6------ 7------|
D|-------- 9---- 4------ 2------ 2| 4-- 4-- 2 2---- 7------ 7------|
A| 5------ 7------ 4--------------| 2---- 2---------------- 7------|
E|------------------------ 2------|-------- 0-------- 5------------|
ClassicalGuitarTablature http://classicalguitartablature.blogspot.com/
ClassicalGuitarTablature http://classicalguitartablature.blogspot.com/
E|------------------ 0------ 4 5 7|-- 5---- 4----------------------|
B| 5---- 2---- 3-- 5 5------ 7 7 7|---- 6 7-- 7---- 5-------- 910--|
G| 2---- 2---- 2-- 6-- 6---- 6 6 6|-- 6---- 6-- 6-- 6-------- 7----|
D| 2-- 2 2 2-- 2-- 7--------------|---------------- 7 7------ 9 9--|
A| 0------ 4------ 7------ 6------| 5------ 6------ 7---- 8------ 9|
E|--------------------------------|--------------------------------|
ClassicalGuitarTablature http://classicalguitartablature.blogspot.com/
E| 7------------------ 5------ 2--|--------------------------------|
B|10--10-- 9-- 7-- 5-- 5-- 2 5 2--| 5 3---- 2-- 0---------- 6------|
G| 9-- 9-- 7-- 7-- 6-- 6-- 2------|-------------- 2-------- 6------|
D|-------- 9-- 9-- 7------ 4------|---------------- 2------ 5------|
A|-------- 8------ 7------ 6------|---------------- 0------ 6---- 5|
E|--------------------------------| 0-- 2-- 3-- 4------------------|
ClassicalGuitarTablature http://classicalguitartablature.blogspot.com/
E|-------------- 4----------------|-- 2----------------------------|
B| 7-- 7--10--10-- 5 7---- 5------| 3 3-- 5------ 5------ 5------ 5|
G| 6-- 6-- 7-- 7-- 4------ 2---- 2|---------- 7-- 6------ 6--------|
D| 7-- 7-- 7-- 7---------- 2---- 4|------ 6------ 7-- 7-- 7-- 7----|
A|-------- 9------ 4------------ 2|------ 7------------------------|
E|------------------------ 2------|-------------- 5------ 7--------|
ClassicalGuitarTablature http://classicalguitartablature.blogspot.com/
E|---------------------- 7---- 9 7|-------- 4----------------------|
B|---- 5-- 9-- 9 9---- 9 7---- 7 7|--10---- 7-- 7-- 5------ 5------|
G| 4-- 4-- 9-- 9-- 9-- 9 8---- 8 7|-- 9---- 6-- 6-- 7------ 4------|
D| 6-- 6-- 9-- 9-- 7-- 7----------|-- 9------ 7---- 6------ 2---- 2|
A| 7-- 7---------- 9--------------|-------- 6-- 6-- 7------------ 0|
E|-------- 9-------------- 7---- 7|-- 9-------------------- 4------|
ClassicalGuitarTablature http://classicalguitartablature.blogspot.com/
E|-------------------- 5---- 4 5 7|-- 5-- 4---------------------- 7|
B| 5------ 2-- 3-- 5-- 5---- 7 7 7|-- 5-- 7-- 7-- 5---------- 9--10|
G| 2------ 2------ 6-- 6---- 6 6 6|-- 6-- 6------ 6---------- 7-- 9|
D|---- 2-- 2------ 7--------------|-------------- 7---------- 9----|
A|-------- 4------ 7------ 6------| 5---- 6------ 7------ 8------ 9|
E|--------------------------------|--------------------------------|
ClassicalGuitarTablature http://classicalguitartablature.blogspot.com/
E|------------------ 5-------- 2--|------ 5------ 4-------- 7------|
B|--10-- 9-- 7-- 5-- 5-- 2-- 5-- 5|------ 5 5------ 7------ 7------|
G|-- 9-- 7-- 7---- 6 6---- 2---- 2|------ 4---- 4-- 6-- 6-- 7 7----|
D|------ 9------ 7------ 4------ 4|------ 4------------------------|
A|------ 8------ 7------ 6--------| 2------ 4------ 5------ 7------|
E|--------------------------------|--------------------------------|
ClassicalGuitarTablature http://classicalguitartablature.blogspot.com/
E| 5------------------------------|--------------------------------|
B| 5------------------------------|--------------------------------|
G| 6------------------------------|--------------------------------|
D|--------------------------------|--------------------------------|
A|--------------------------------|--------------------------------|
E| 5------------------------------|--------------------------------|
ClassicalGuitarTablature http://classicalguitartablature.blogspot.com/

0 ความคิดเห็น:

แสดงความคิดเห็น