To celebrate the anniversary, I am giving you (finally...) : iPhone LickByNeck !!!!!!

Give Love On Christmas Day


Give Love On Christmas Day played in the key of C.
ClassicalGuitarTablature http://classicalguitartablature.blogspot.com/
E|--------------------------------|--------------------------------|
B| 8------------10--10------------|--------------------------------|
G| 9------------10--10---------- 9|--------------10-------------- 5|
D|10------------10--10----------10|--------------10-------------- 5|
A|----------12--------------10----|----------12----------------10--|
E| 8-- 8--------10-------------- 8|-- 8----------10--10---------- 8|
ClassicalGuitarTablature http://classicalguitartablature.blogspot.com/
E|------------------------ 5---- 1|---------------- 5---- 8------ 7|
B|------ 5-- 6---- 8------ 5---- 3|------ 6---- 8-- 6----10------ 8|
G|------ 7-------- 5------ 5---- 2|------ 6-------- 5----10------ 9|
D|-- 5-- 5------------ 5------ 5--|---- 3 5------------ 7----10----|
A|--------------------------------|-------- 6------ 5--------------|
E|------ 7-------- 5------ 3------| 1-------------------- 8------ 7|
ClassicalGuitarTablature http://classicalguitartablature.blogspot.com/
E|------ 7-- 5---- 3------ 5------| 1-- 0--------------------------|
B|------ 5-------- 2------ 5------| 1-- 1-- 3-- 1 3----------------|
G|------ 6-- 6---- 2------ 5-- 5--| 2-- 0-- 5-- 2-- 2---- 1-- 2-- 5|
D|-- 9---------------- 2----------|-------- 3-- 3------ 3 3-- 3-- 5|
A|--------------------------------|-------- 5-- 3-- 2---- 1-- 2----|
E|------ 5-------- 3------ 2------| 1-- 0------------------------ 8|
ClassicalGuitarTablature http://classicalguitartablature.blogspot.com/
E|------------------------ 5---- 1|---------------- 5---- 8------ 7|
B|------ 5-- 6---- 8------ 5---- 3|------ 6---- 8-- 6----10------ 8|
G|------ 7-------- 5------ 5---- 2|------ 6-------- 5----10------ 9|
D|-- 5-- 5------------ 5------ 5--|---- 3 5------------ 7----10----|
A|--------------------------------|-------- 6------ 5--------------|
E|------ 7-------- 5------ 3------| 1-------------------- 8------ 7|
ClassicalGuitarTablature http://classicalguitartablature.blogspot.com/
E|------ 7------ 5-- 3-- 1---- 0--|---------------- 3---- 0--------|
B|------ 8-- 8---- 2 2-- 1---- 1--| 6------ 6-- 3-- 6 6-- 1---- 3--|
G|------ 6-- 6---- 2 2-- 2---- 2--| 6------ 5-- 5-- 3-- 3 2---- 2--|
D|-- 9------ 5--------------------|---- 5-- 3-- 3------ 5------ 3--|
A|--------------------------------| 6------ 5------ 4---- 3---- 2--|
E|------ 5-------- 3------ 1------|--------------------------------|
ClassicalGuitarTablature http://classicalguitartablature.blogspot.com/
E|------------------------ 3------| 5-- 5--------10------ 7--------|
B| 1---- 5-------- 6------ 3------| 5-- 5----10-- 8------ 8------ 8|
G| 0---- 5-------- 5------ 3------| 5-- 5----10-- 7------ 7------ 7|
D| 2---- 5-------- 3--------------|----------10------------------ 5|
A| 3------------------------------| 8-- 7-- 5-------- 0--10-- 8-- 7|
E|-------- 6------ 4------ 3------|------------ 8 7----------------|
ClassicalGuitarTablature http://classicalguitartablature.blogspot.com/
E|-------------------------- 0----|------------------ 3-- 5------ 3|
B|-------------------------- 1-- 6|-- 5-- 6-- 5-- 6-- 6-- 0------ 6|
G|------ 9---- 7 6------ 2-- 0-- 5|-- 3-- 7-- 7-- 5-- 4-- 0--------|
D|------ 7-- 5-- 5------ 0------ 3|---- 5 7-- 5-- 3----------------|
A|-- 5-------------------------- 5|---- 4--------------------------|
E|------ 8---- 7 5-- 3-- 1---- 0--|-------- 8 7---- 5-- 3-- 1 0----|
ClassicalGuitarTablature http://classicalguitartablature.blogspot.com/
E|-------------- 3-- 5-- 6--------|------------ 5--10---- 7--------|
B|-- 5 6-- 8 5 6 3-- 3-- 8------10|--10-------- 6-- 8---- 8------ 8|
G| 3 3---- 5 5-- 3-- 3-- 5-- 6--10|---- 9------ 7-- 7-- 3 7------ 7|
D|-- 5---- 5 4-------------- 5--10|---- 8-------------- 3-------- 5|
A| 5-- 3-------------------- 6----|----------------------10-- 8-- 7|
E|-------- 6 5---- 3 2---- 0----10|---- 9-- 8-- 7-- 6-- 4----------|
ClassicalGuitarTablature http://classicalguitartablature.blogspot.com/
E|-------------------------- 0----|------------------ 5-- 3------ 0|
B|-------------------------- 2-- 6|-- 8--10---------- 6-- 6-- 6-- 1|
G|------ 9---- 7 6------ 2-- 0-- 5|-- 9--10------ 7---- 5 5---- 4 2|
D|------ 7-- 5-- 5------ 0------ 7|-- 8--10------ 5------------ 3--|
A|-- 5-------------------------- 5|--------------------------------|
E|------ 8---- 7 5-- 3------ 0----|-- 9-- 8-- 7---- 6-- 5-- 4-- 3 2|
ClassicalGuitarTablature http://classicalguitartablature.blogspot.com/
E|---------- 8--1012----10------10|---------- 7 810------ 8-- 7----|
B|------------ 8--10----13--13--10|----------10--12------ 6-- 6--10|
G|---- 2-- 5-- 6--10----12--12--10|---------- 9---- 9---- 7-- 7-- 7|
D|---- 2-- 5----------10----10----|-- 9---------------- 9-------- 9|
A|------------ 6---------------- 8|-------- 9------11--------------|
E|---- 1-- 0------10----12--------|---------------------- 5------ 7|
ClassicalGuitarTablature http://classicalguitartablature.blogspot.com/
E| 7 8----------------------------| 5-- 5--------10------ 7--------|
B|--10----------------------------| 5-- 5----10-- 8------ 8------ 8|
G|-- 9---------------- 3------ 5--| 5-- 5----10-- 7------ 7------ 7|
D|----------10------ 3------ 8----|----------10------------------ 5|
A|-------------- 5-------- 7------| 8-- 7-- 5-------- 0--10-- 8-- 7|
E|------ 8------------------------|------------ 8 7----------------|
ClassicalGuitarTablature http://classicalguitartablature.blogspot.com/
E|-------------------------- 0----|------------------ 3-- 5------ 3|
B|-------------------------- 1-- 6|-- 5-- 6-- 5-- 6-- 6-- 0------ 6|
G|------ 9---- 7 6------ 2-- 0-- 5|-- 3-- 7-- 7-- 5-- 4-- 0--------|
D|------ 7-- 5-- 5------ 0------ 3|---- 5 7-- 5-- 3----------------|
A|-- 5-------------------------- 5|---- 4--------------------------|
E|------ 8---- 7 5-- 3-- 1---- 0--|-------- 8 7---- 5-- 3-- 1 0----|
ClassicalGuitarTablature http://classicalguitartablature.blogspot.com/
E|-------------- 3-- 5-- 6--------|------------ 5--10---- 7--------|
B|-- 5 6-- 8 5 6 3-- 3-- 8------10|--10-------- 6-- 8---- 8------ 8|
G| 3 3---- 5 5-- 3-- 3-- 5-- 6--10|---- 9------ 7-- 7-- 3 7------ 7|
D|-- 5---- 5 4-------------- 5--10|---- 8-------------- 3-------- 5|
A| 5-- 3-------------------- 6----|----------------------10-- 8-- 7|
E|-------- 6 5---- 3 2---- 0----10|---- 9-- 8-- 7-- 6-- 4----------|
ClassicalGuitarTablature http://classicalguitartablature.blogspot.com/
E|-------------------------- 0----|------------------ 5-- 3--------|
B|-------------------------- 2-- 6|-- 8--10---------- 6-- 6-- 6----|
G|------ 9---- 7 6------ 2-- 0-- 5|-- 9--10------ 7---- 5 5---- 4 9|
D|------ 7-- 5-- 5------ 0------ 7|-- 8--10------ 5------------ 310|
A|-- 5-------------------------- 5|--------------------------------|
E|------ 8---- 7 5-- 3------ 0----|-- 9-- 8-- 7---- 6-- 5-- 4-- 3 8|
ClassicalGuitarTablature http://classicalguitartablature.blogspot.com/
E|--------------------------------|--------------------------------|
B|--------------------------------|--------------------------------|
G|----------------10--------------| 9--------------10--------------|
D|----------------12--------------|10--------------10--------------|
A|------------12--------------10--|------------12--------------10--|
E|-- 8------------10--10----------| 8-- 8----------10--10----------|
ClassicalGuitarTablature http://classicalguitartablature.blogspot.com/
E|--------------------------------|--------------------------------|
B|--------------------------------|--------------------------------|
G|-- 4----------------------------|--------------------------------|
D| 2------------------------------|--------------------------------|
A| 3------------------------------|--------------------------------|
E|--------------------------------|--------------------------------|

0 ความคิดเห็น:

แสดงความคิดเห็น