To celebrate the anniversary, I am giving you (finally...) : iPhone LickByNeck !!!!!!

Happy Birthday

Happy Birthday tune fingerstyle chord melody guitar arrangement played in the key of G.

Happy Birthday played in the key of G.
Classical Guitar Tablature http://classicalguitartablature.blogspot.com/
E| 8------ 8------ 7--------------|--------------------------------|
B|---------------------- 5--------| 8------------------------------|
G|-------------------- 5----------|------ 7------------ 9----------|
D|---------------------- 5--------|------ 7------------ 9----------|
A|--------------------------------|--------------------------------|
E|---------------------- 5--------|------ 7-------- 8--------------|
Classical Guitar Tablature http://classicalguitartablature.blogspot.com/
E|--------------------------------|-------- 3---- 3----------------|
B|10------10------ 8---------- 8--|-------- 4---- 3------------ 6--|
G| 9------ 8------ 8---------- 7--|-------- 5------ 4---------- 5--|
D|10------10------ 7---------- 6--|---------------------------- 4--|
A|-------- 9------ 8--------------|------------------------ 4-- 5--|
E|10-------------------------- 6--|-------- 4------ 3--------------|
Classical Guitar Tablature http://classicalguitartablature.blogspot.com/
Classical Guitar Tablature http://classicalguitartablature.blogspot.com/
E|--------------------------------|--------------------------------|
B|------ 3 3------ 5---- 5-- 5----| 3------ 8------ 7---------- 7--|
G|------ 3 3------ 4---- 4---- 4--| 5------ 7------ 6---- 6---- 5--|
D|-------- 2------ 4---- 4---- 3--| 5------ 6------ 5---- 5---- 7--|
A|--------------------------------|---------------- 6------ 5------|
E|------ 2 2------ 3---- 3 4---- 4|-- 5---- 6----------------------|
Classical Guitar Tablature http://classicalguitartablature.blogspot.com/
E|---- 3--------------------------|-------- 5------ 3--------------|
B| 5-- 5-- 3-- 3-- 5--------------| 3------ 5------ 3---- 3---- 5--|
G| 4-- 4-- 3-- 3-- 7---- 7-- 7----| 5------ 5------ 4---- 4---- 5--|
D|-------- 2-- 2-------- 7-- 6----| 5-- 5---------------------- 5--|
A| 4------------------------------|--------------------------------|
E|-------- 2------ 7------ 6------| 5------ 4------ 3---------- 5 5|
Classical Guitar Tablature http://classicalguitartablature.blogspot.com/
E|----------------10--------------|--------------------------------|
B| 8--------------10--------------|12------ 8------ 7--------------|
G| 7------ 7---- 710----10--------|10------10------ 9---- 9--------|
D| 5------ 7----------------------|12--12-- 9------ 9--------------|
A|------------------------11---- 0|10---------------------- 9-- 0--|
E| 7------ 8--------10------------|-------- 9------ 8--------------|
Classical Guitar Tablature http://classicalguitartablature.blogspot.com/
E|-------- 8-- 8-- 7--------------|-------- 7------ 5--------------|
B|-------- 8-- 8-- 7--------------| 8------ 7------ 5--------------|
G|---------------- 7---- 7 8------| 7-- 7-- 6------ 5---- 5 6------|
D|---- 7--------------------------| 6------------------------------|
A| 8---------------------- 8---- 0| 7---------------------- 6-- 0--|
E|---------------- 7--------------|-------- 6-- 0-- 5--------------|
Classical Guitar Tablature http://classicalguitartablature.blogspot.com/
E|--------------------------------|-------- 3------ 2---- 2-- 2----|
B|---- 6-- 3---- 3 5---- 5-- 5----| 3------ 4------ 3---- 3-- 3----|
G|---- 5-- 3---- 3 4---- 4-- 4----| 3------ 4------ 3---- 3--------|
D|---- 4-- 2------ 5---- 5-- 3----| 2------------------------------|
A| 5-------------- 4--------------|-------- 4------ 3--------------|
E|-------- 2-------------- 0 3----|-- 2-------------------- 3-- 3--|
Classical Guitar Tablature http://classicalguitartablature.blogspot.com/
E|---------------- 0-------- 0----|-------- 5----------------------|
B| 3------ 3------ 0---- 0-- 1----| 3------ 6------ 8------ 8---- 8|
G| 2------ 2------ 0---- 0--------| 2------ 5------ 8------ 8---- 7|
D|-------- 1----------------------| 1-------------- 8------ 7---- 7|
A|--------------------------------|--------------------------------|
E| 2------ 1------ 0------ 1------| 1------ 6------ 9------ 8---- 7|
Classical Guitar Tablature http://classicalguitartablature.blogspot.com/
E|----------------10----10----10--| 7------------------------------|
B|---------------- 8---- 8---- 8--| 8------ 8------ 7---- 5--------|
G|-------- 7---- 7 9---- 9--------| 7------ 8------ 6---- 5--------|
D|-------- 6------ 7--------------|-------- 7------ 4---- 4--------|
A|--------------------------------|-------- 8------ 6--------------|
E|-------- 6-------------- 7------| 8------------------------ 4-- 0|
Classical Guitar Tablature http://classicalguitartablature.blogspot.com/
E|-------- 8-- 8-- 7--------------|--------------------------------|
B| 5------ 8------ 7--------------| 8------------------10----------|
G| 5------ 7------ 8-- 8----------|10------------------ 8----------|
D| 5------------------------------|11------------------ 8----------|
A|--------------------------------|-------- 7------ 8--------------|
E| 5------ 6------ 9------10------|11---------------------- 8------|
Classical Guitar Tablature http://classicalguitartablature.blogspot.com/
E|--------------------------------|--------------------------------|
B|10------10------ 8---------- 8--|-------- 8----------------------|
G|10------ 8------ 7---------- 7--|-------- 6----------------------|
D| 9------10------ 7---------- 6--|-------- 5----------------------|
A|-------- 9----------------------|--------------------------------|
E| 9-------------- 7---------- 6--|-------- 5----------------------|
Classical Guitar Tablature http://classicalguitartablature.blogspot.com/
E| 8------ 8------ 7--------------|--------------------------------|
B| 6------ 6------ 7---------- 8--|----------------10--------------|
G| 6------ 6------ 8---------- 9--|----------------12--------------|
D|----------------------------10--|----------------11--------------|
A|-------- 6----------------------|--------------------------------|
E| 6-------------- 9----------10--|----------------11--------------|
Classical Guitar Tablature http://classicalguitartablature.blogspot.com/
E|--------------------------------|--------------------------------|
B|----10---------- 8---------- 8--|-------- 8----------------------|
G|------11-------- 8---------- 8--|-------- 7----------------------|
D|------12-------- 7--------------|-------- 5----------------------|
A|---------------- 8--------------|--------------------------------|
E|12-------------------------- 8--|-------- 7----------------------|
Classical Guitar Tablature http://classicalguitartablature.blogspot.com/
E|--------------------------------|--------------------------------|
B|--------------------------------|--------------------------------|
G|--------------------------------|--------------------------------|
D|--------------------------------|--------------------------------|
A|--------------------------------|--------------------------------|
E|--------------------------------|--------------------------------|

0 ความคิดเห็น:

แสดงความคิดเห็น