To celebrate the anniversary, I am giving you (finally...) : iPhone LickByNeck !!!!!!

Hark The Harold Angels Sing


Hark The Harold Angels Sing played in the key of E.
ClassicalGuitarTablature http://classicalguitartablature.blogspot.com/
E| 9-------- 9-- 9----------------|-------------- 5----------------|
B| 9---- 9------12------12--------|10---- 9------ 7-------- 7------|
G| 9 9-------------------- 9------| 9------ 7---- 6-- 6------------|
D|-------------------- 9-------- 7|------ 9---------------------- 4|
A|12------------11-------------- 9|------ 8-------- 7------------ 6|
E|--------------------------------|--------------------------------|
ClassicalGuitarTablature http://classicalguitartablature.blogspot.com/
E|-------- 4-- 5-- 7--------------|------ 2------ 0----------------|
B| 7------ 5------ 9------ 5---- 5|-------- 2---- 0-------------- 0|
G| 4---- 4-------- 9------ 6---- 4|-------- 2------ 1--------------|
D|------------------------ 7---- 4|-------------- 2----------------|
A|------ 4------------------------|-------------- 2----------------|
E|-------------- 7-------- 5---- 4|-------- 2------ 0------------ 0|
ClassicalGuitarTablature http://classicalguitartablature.blogspot.com/
ClassicalGuitarTablature http://classicalguitartablature.blogspot.com/
E|------ 0------------------------|------ 4------ 4-------------- 7|
B|-------------- 5---- 4 4------ 5|------ 5------ 5------ 7--------|
G| 1------------ 2------ 3--------| 4------------ 6------ 6------ 9|
D|-- 2---------- 2------ 2--------| 4 4------------------ 6--------|
A|--------------------------------|--------------------------------|
E|---------------- 2---- 3--------| 4------------ 5-------- 6---- 7|
ClassicalGuitarTablature http://classicalguitartablature.blogspot.com/
E|------ 7------------------------|-------------- 4------ 4--------|
B| 9---- 9------12------10------ 9|------ 7------ 5------ 5--------|
G|-- 9----------10------10------ 9|------ 8------ 4-- 4------------|
D|-------------- 9-------------- 7|------ 7------------------------|
A|-------------------- 9-------- 9|-------------- 7----------------|
E|-------------- 9----------------|------ 7------------------------|
ClassicalGuitarTablature http://classicalguitartablature.blogspot.com/
E|------ 0------------------------|------ 4------ 4----------------|
B| 0-------------- 5---- 4--------| 5-------------- 5---- 7--------|
G| 1-------------- 2---- 3--------| 4-------------- 6---- 6--------|
D|---- 2---------- 2---- 2--------| 4-- 4---------------- 6------ 9|
A| 2------------------------------|--------------------------------|
E| 0-------------- 2------ 3------| 4-------------- 5------ 6---- 9|
ClassicalGuitarTablature http://classicalguitartablature.blogspot.com/
E|--------------------------------|------------------------------ 7|
B|12-------------- 7------------ 4|------------------------------ 5|
G|11----11------ 9------ 9------ 4|------ 6-------- 4---- 4--------|
D|-- 9---------- 8----------------| 4---- 4-------- 4 4------------|
A|--------------------------------|--------------------------------|
E|-------------- 8-------------- 7|-------- 6------ 5------------ 4|
ClassicalGuitarTablature http://classicalguitartablature.blogspot.com/
E|------ 7------ 7----------------|------------------------------ 7|
B|------ 5------ 5------ 5------10|------ 9------ 9------ 7--------|
G|-- 4------ 4-- 6------ 6--------| 9---- 9------ 8-------- 4------|
D|------------------ 7---------- 7|------ 7------ 7-------- 4------|
A|--------------------------------|--------------------------------|
E|-------------- 5-------------- 9|------ 8-------- 7------ 5------|
ClassicalGuitarTablature http://classicalguitartablature.blogspot.com/
E|-------- 7---- 7----------------|--------------------------------|
B| 5------ 5------ 5------ 5----10|------ 9------ 9------ 7--------|
G| 4-- 4-------- 6------ 6------ 9|------ 8------ 7------ 7--------|
D|-------------------- 7-------- 7|-- 7-- 7------ 7------ 6--------|
A|--------------------------------|------------------------------12|
E| 4-------------- 5------------ 9|------ 8------ 7------ 6--------|
ClassicalGuitarTablature http://classicalguitartablature.blogspot.com/
E| 9---- 9------ 9----------------|-------------- 5-------- 5------|
B|10------10------12----12------10|------ 9------ 7-------- 7------|
G| 9-- 9-------- 9------ 9------ 9|------ 7------ 6-- 6------------|
D|-------------------- 9--------11|------ 9------------------------|
A|--------------11------------ 9--|---- 8-------- 7----------------|
E|--------------------------------|--------------------------------|
ClassicalGuitarTablature http://classicalguitartablature.blogspot.com/
E|-------- 4-- 5-- 7--------------|-------------- 4------ 4--------|
B| 7------ 5-- 5-- 9------ 5------| 5---- 7------ 5-------- 5------|
G| 4------ 4-- 4 9-------- 6------| 6------ 6---- 4---- 4-------- 9|
D|---- 4---------------- 6------ 6|------ 7------------------------|
A| 6---- 4------------------------|-------------- 7--------------12|
E|-------------- 7------ 5------ 6|-------- 7----------------------|
ClassicalGuitarTablature http://classicalguitartablature.blogspot.com/
E| 9-------- 9-- 9----------------|-------------- 5------ 5--------|
B|10----10------12------12--------|10------ 9---- 7----------------|
G|---- 9---------------- 9--------| 9------ 7---- 6-- 6------------|
D|-------------------- 9-------- 7|------ 9---------------------- 4|
A|--------------11-------------- 9|------ 8-------- 7---------- 6--|
E|--------------------------------|--------------------------------|
ClassicalGuitarTablature http://classicalguitartablature.blogspot.com/
E|------ 4---- 5-- 7--------------|-------------- 2-------- 2---- 0|
B| 7---- 5---- 5-- 9------ 5---- 5|------ 5------ 2-------- 3------|
G| 4---- 4---- 4 9-- 8---- 6---- 4|------ 4------ 2-------- 2------|
D|------ 4-------------- 6------ 4|------ 3------------------------|
A|------ 4------------------------|------------------------------ 2|
E|-------------- 7------ 5------ 4|------ 3-------- 2------ 1------|
ClassicalGuitarTablature http://classicalguitartablature.blogspot.com/
E|--------------------------------|--------------------------------|
B| 0------------------------------|--------------------------------|
G| 1------------------------------|--------------------------------|
D|--------------------------------|--------------------------------|
A|--------------------------------|--------------------------------|
E| 0------------------------------|--------------------------------|
ClassicalGuitarTablature http://classicalguitartablature.blogspot.com/

0 ความคิดเห็น:

แสดงความคิดเห็น