To celebrate the anniversary, I am giving you (finally...) : iPhone LickByNeck !!!!!!

Have Yourself A Merry Little Christmas


have-yourself-a-merry-little-christmas played in the key of G
ClassicalGuitarTablature http://classicalguitartablature.blogspot.com/
E|---------------------- 3--------|--------------------------------|
B|---------- 0---- 3------------ 3|---- 1 0------------------------|
G|------ 0-------- 0--------------|------------ 2-- 0-- 2----------|
D|---- 0-------------- 0-------- 2|-------------- 4-------- 4------|
A|---------------------------- 0--|-------------- 5------------ 5--|
E| 3-------------- 0--------------|--------------------------------|
ClassicalGuitarTablature http://classicalguitartablature.blogspot.com/
E|---------------------- 3--------|--------------------------------|
B|---------- 0-- 3-------------- 3|---------- 3---------- 3--------|
G|-------- 0------ 0--------------|------ 0-------------- 2------ 4|
D|---- 0------ 0------ 0-------- 2|---- 2------ 0------ 4-------- 5|
A|------------------------------ 0|-------------- 5----------------|
E| 3------------ 0----------------|------------------------------ 3|
ClassicalGuitarTablature http://classicalguitartablature.blogspot.com/
ClassicalGuitarTablature http://classicalguitartablature.blogspot.com/
E|---------------------- 7------ 5|--------------------------------|
B|------ 3------ 8-------------- 5|---- 8 7---- 5 3---------- 1-- 0|
G|-------------- 7-------------- 5|------ 6---- 6 5---------- 0----|
D|---- 5-------- 9---- 9----------|------ 5---- 5 4---- 4---- 2 2 0|
A|-------------- 7----------------|------ 6------ 5------ 3------ 2|
E|------------------------------ 5|--------------------------------|
ClassicalGuitarTablature http://classicalguitartablature.blogspot.com/
E|--------------------------------|--------------------------------|
B|------ 1---- 0------------ 3-- 5|------ 6---- 5------ 5 3--------|
G| 2---- 2---- 1---------- 4 4-- 5|------ 6---- 5------ 5 2--------|
D|---- 0-- 1-- 0------ 0 3-- 3-- 5|---- 5 5---- 4------ 4-- 0------|
A|--------------------------------|------ 6---- 5------------------|
E|-------- 1-- 0---------- 4---- 5|---------------------- 2--------|
ClassicalGuitarTablature http://classicalguitartablature.blogspot.com/
E|---------------------- 3--------|--------------------------------|
B|---------- 0-- 3-------------- 3|---- 1 0------------------------|
G|------ 0------ 0-------------- 0|---------- 2-- 0------ 2 2------|
D|---- 0------ 0------ 0-------- 2|------------ 0 4---- 4-- 4------|
A|-------------- 2-------------- 0|-------------- 5----------------|
E| 3-------------- 0--------------|--------------------------------|
ClassicalGuitarTablature http://classicalguitartablature.blogspot.com/
E|------------------------ 3------|--------------------------------|
B|---------- 0-- 3----------------| 3-------- 3---- 5------ 5---- 3|
G|-------- 0---- 0----------------|-------- 0------ 5------ 5------|
D|---- 0------ 0------ 0----------| 2-- 2---------- 5-- 5----------|
A|--------------------------------| 0-------------- 5--------------|
E| 3-------------- 0--------------|--------------------------------|
ClassicalGuitarTablature http://classicalguitartablature.blogspot.com/
E|------------------------ 7---- 8|---- 7 5---------------------- 7|
B|-------- 3------ 8------ 8---- 8|---- 5 5-- 8-- 7--------10---- 8|
G| 4------ 4------ 7------------ 5|---- 5 5-- 5-- 8--------10------|
D| 5-- 5---- 5---- 9-- 9----------|---------- 5-- 7---- 7--10------|
A|---------------- 7--------------|------------------------ 8------|
E| 3---------------------------- 5|---------------- 7---------- 0--|
ClassicalGuitarTablature http://classicalguitartablature.blogspot.com/
E|--------------------------------|------------------------------ 7|
B|-------- 8------ 8------ 8------|10------10----10--------10---- 8|
G| 7------ 7-- 7-- 7------ 7------|10------10----10--------10---- 7|
D|---- 9---- 9-------- 9---- 9----|10--10------10 9-------- 9------|
A| 7------------------------------|----------121110----------------|
E|---------------------------- 0--|10---------------------- 9---- 8|
ClassicalGuitarTablature http://classicalguitartablature.blogspot.com/
E|-------- 7---- 7------ 7------ 7|--------------------------------|
B|------ 8------ 7------ 7--10 8 7|---- 810----1010------ 8---- 7--|
G|---- 7------ 7 7---- 7-------- 7|---- 7 7------ 7-------- 6-- 6--|
D|------------------------------ 7|---- 7 7------ 7-------- 5-- 5--|
A|--------------------------------|--------------------------------|
E|-------------- 8-------------- 8|------------ 7---------- 6---- 5|
ClassicalGuitarTablature http://classicalguitartablature.blogspot.com/
E|--------------------------------|------ 4------------------------|
B| 5-- 7-- 8-------- 8---- 7------| 7-------- 7------------ 7---- 8|
G| 5---------------- 6---- 5------| 7------ 7-------------- 7---- 7|
D| 5---------------- 8---- 7------| 9-- 9-------------- 5-------- 5|
A|------------ 0 6---- 6-- 5-- 0--|10------------------------------|
E|--------------------------------|-------------- 7----------------|
ClassicalGuitarTablature http://classicalguitartablature.blogspot.com/
E|--------------------------------|--------------------------------|
B|---- 8---- 8-- 8------ 7---- 5--|------ 7-------------- 7---- 810|
G|---- 7---- 7---- 7---- 6---- 6--| 7-- 9 9------ 7---- 9 7---- 7 7|
D|---------------- 6------ 5---- 7|---- 7------ 7 7------ 7---- 7--|
A| 7---------------------------- 9|-------------- 7----------------|
E|-------- 7------ 6------ 5------|-------------- 7----------------|
ClassicalGuitarTablature http://classicalguitartablature.blogspot.com/
E|--------------------------------|--------------------------------|
B|------10---------------------- 3|-------- 3------ 3--------------|
G|------ 7------ 2------ 2------ 5|-------- 5------ 5--------------|
D| 9-- 9-------- 2---- 2 2------ 5|---- 5---------- 4--------------|
A| 7------------------------------|---------- 3 4-- 5--------------|
E|---------------- 5------------ 5|--------------------------------|
ClassicalGuitarTablature http://classicalguitartablature.blogspot.com/
E|---------------------- 3--------|--------------------------------|
B|------ 0------ 3-------------- 3|---- 1 0------------------------|
G| 0------------ 0-------------- 0|-------- 2---- 0------ 2------ 0|
D|---- 0------ 0------ 0-------- 2|------------ 0 2---- 2-------- 5|
A|-------------- 2-------------- 3|-------------- 4-------------- 5|
E| 3------------------------------|--------------------------------|
ClassicalGuitarTablature http://classicalguitartablature.blogspot.com/
E|--------------------------------|--------------------------------|
B|---------------------- 8------ 3|-------- 3---- 5------ 5--------|
G|------ 4------ 7------ 7------ 5|------ 5------ 5------ 5------ 4|
D|---- 5 5------ 5------ 6------ 5|---- 5---------- 5-- 5----------|
A|------------ 0-- 7--------------|---------- 3 4-- 5--------------|
E|------------------------ 6------| 5------------------------------|
ClassicalGuitarTablature http://classicalguitartablature.blogspot.com/
E|---------------------- 7------ 8|---- 7 5---------------------- 7|
B|-------- 3---- 8------ 8------ 5|---- 5 5---- 8 7------10------ 8|
G|-------------- 7-------------- 5|------ 5---- 5 8------ 8--------|
D| 5-- 5-------- 9---- 9----------|------------ 5 7---- 7 7--------|
A|---------------- 7--------------|--------------------------------|
E| 3---------------------------- 5|-------------- 7----------------|
ClassicalGuitarTablature http://classicalguitartablature.blogspot.com/
E|-------------- 7----------------|------------------------------ 7|
B|------ 8------ 8------ 8----1012|------10------ 8----------------|
G| 7------ 7---------- 9--------10|----12------10---------------- 5|
D|---- 9------ 9----------------10|------------ 9------------------|
A| 7------------------------------|--------------------------------|
E|------------------------------10|------------ 9---------------- 8|
ClassicalGuitarTablature http://classicalguitartablature.blogspot.com/
E|------------------------------ 7|---- 5-------- 3----------------|
B| 5-------------- 5------ 8---- 5|---- 5 8---- 7 5------ 7--------|
G|------ 5------ 7-------- 7---- 5|---- 5 5---- 5 5------ 5------ 2|
D|---- 5-------- 5-------- 5------|-------- 5-- 5 5------ 4--------|
A|--------------------------------|-------------- 5----------------|
E|-------------- 7----------------| 5---------------------- 4---- 3|
ClassicalGuitarTablature http://classicalguitartablature.blogspot.com/
E| 3------------------------------|--------------------------------|
B| 2------------ 2----------------|--------------------------------|
G|---------------------- 2--------|--------------------------------|
D|------ 2------------------------|--------------------------------|
A|--------------------------------|--------------------------------|
E|--------------------------------|--------------------------------|
ClassicalGuitarTablature http://classicalguitartablature.blogspot.com/

0 ความคิดเห็น:

แสดงความคิดเห็น