To celebrate the anniversary, I am giving you (finally...) : iPhone LickByNeck !!!!!!

I saw mommy kissing santa clause


I saw mommy kissing santa clause played in the key of C.
ClassicalGuitarTablature http://classicalguitartablature.blogspot.com/
E|------------------------------ 0|------ 3-------------- 8------ 7|
B| 1---------- 1-------- 3------ 1|--------------10------10------ 8|
G| 0---- 0---------------------- 0|-------------- 9----------------|
D|---- 2-------------- 2----------|--------------10-------------- 9|
A| 3-------------------------- 3--|------------------------------ 7|
E|-------------- 3----------------|-------------- 8----------------|
ClassicalGuitarTablature http://classicalguitartablature.blogspot.com/
E|--------------------------------|------------------------------ 5|
B|------------ 8-------- 8------ 5|------------------------------ 3|
G|------ 7-------------- 7--------| 5---------------------------- 3|
D|---- 9-------------- 5-------- 5|---- 5------------------------ 3|
A|--------------------------------|------------------------------ 3|
E|-------------- 7-------------- 8|------ 7-------- 5---- 4------ 3|
ClassicalGuitarTablature http://classicalguitartablature.blogspot.com/
E|------ 3---------------------- 5|------ 3------ 0------ 0--------|
B|-------------- 5-------------- 6|-------- 0------ 1---- 1------ 0|
G|---- 3-------- 5------ 5------ 5|------ 0------ 2------ 2--------|
D|-------------- 5----------------|------------------------ 2---- 0|
A|------------ 3-------------- 5--|--------------------------------|
E|--------------------------------|------ 0------ 1------ 2------ 3|
ClassicalGuitarTablature http://classicalguitartablature.blogspot.com/
E|--------------------------------|--------------------------------|
B|---------- 0---------- 5--------|---- 8-------------- 6----------|
G| 0---- 0-------------- 5--------|---- 7-------------- 6----------|
D|---- 0------------ 3------------|---- 5-------------- 5----------|
A|--------------------------------|--------------------------------|
E|-------------- 5------------ 5--| 7------------ 5----------------|
ClassicalGuitarTablature http://classicalguitartablature.blogspot.com/
E|--------------------------------|---------------------- 5---- 7 5|
B| 5------ 3---- 3------ 2------ 3|------------------ 8---------- 5|
G| 5------ 5---- 5------ 3------ 4|------------------ 7---------- 4|
D| 3------ 3---- 3------ 2------ 3|------------------ 5------------|
A| 5------------------------------|------------------------------ 3|
E|-------------- 5------ 2------ 3|------ 5------ 7----------------|
ClassicalGuitarTablature http://classicalguitartablature.blogspot.com/
E|------ 3------ 2---- 5------ 3--|------ 3------------------------|
B|------ 5------ 4---- 5----------|------ 5-------- 5-- 4------ 3--|
G|-------------- 3---- 4------ 4--|---- 4---------------------- 5--|
D|--------------------------------|---------------------------- 4--|
A|-------------- 2---- 3------ 3--|---------------------------- 5--|
E|--------------------------------|--------------------------------|
ClassicalGuitarTablature http://classicalguitartablature.blogspot.com/
E|---------------------------- 5--|------ 4-------- 5-- 6------ 7--|
B|-------- 5---- 7---- 8------ 3--|-------- 2------ 3-- 5------ 6--|
G|-------- 5---- 5---- 5------ 5--|-------- 4------ 5-- 6------ 7--|
D|---- 4-------- 7---- 7------ 4--|-------- 3------ 4-- 4------ 5--|
A|---------------- 5--------------|--------------------------------|
E|--------------------------------|--------------------------------|
ClassicalGuitarTablature http://classicalguitartablature.blogspot.com/
E|------ 5------------------------|--------------------------------|
B|------ 6------ 8---- 6------ 3--|------ 3------------ 3----------|
G|------ 7------ 5---- 5------ 4--|------ 4------------ 2----------|
D|-------------- 7---- 4----------|---- 3-------------- 3----------|
A|-------------- 5----------------|-------------- 2----------------|
E|-------------------- 4------ 3--|--------------------------------|
ClassicalGuitarTablature http://classicalguitartablature.blogspot.com/
E|------------------------------ 0|---- 3-------------- 8------ 7--|
B| 1------------------ 3---- 1-- 1|------------10------10------ 8--|
G| 0------ 0----------------------|---- 0------ 9------ 9------ 7--|
D|---- 2------ 2------------ 2----|------------ 8------------ 9----|
A| 3---------------------------- 3|---------------------------- 7--|
E|---------------- 3--------------|------------ 8------------------|
ClassicalGuitarTablature http://classicalguitartablature.blogspot.com/
E|--------------------------------|------------------------------ 5|
B|------ 8------------ 8------ 5--|---- 5------------------------ 3|
G|------ 7------------ 7------ 5--|---- 5--------------------------|
D|-- 9---------------- 5------ 5--|---- 5--------------------------|
A|--------------------------------|--------------------------------|
E|-------------- 7------------ 8--|------ 7------ 5------ 4--------|
ClassicalGuitarTablature http://classicalguitartablature.blogspot.com/
E|---- 3------------------------ 5|---- 3------------------------ 5|
B|---- 3------ 5---------------- 3|---- 3------ 5------ 1-------- 5|
G| 3-- 3------ 5------ 5-------- 3|---- 3------ 5------ 3-------- 5|
D|------------ 3-------- 3--------|-------------------- 2----------|
A|------------------------------ 3|------------------------------ 8|
E| 3------------------------------|-------------------- 2----------|
ClassicalGuitarTablature http://classicalguitartablature.blogspot.com/
E|---- 5--------------------------|---------------------------- 7 8|
B|---- 5-------- 6---- 6-------- 5|---- 5---------- 1----10------10|
G|-------------- 5---- 5-------- 5|---- 5---------- 2--------------|
D|-------------- 7-------------- 3|---- 3---------- 3--------------|
A|------ 7-------- 5--------------|------------------------------ 9|
E|------------------------ 8---- 5|-------- 3------ 1--------------|
ClassicalGuitarTablature http://classicalguitartablature.blogspot.com/
E|------ 8------ 8----10------ 7--|------ 7-------------------- 5--|
B|------10------10----10------ 7--|------ 7-------------- 7---- 5--|
G|---- 9------ 9-------------- 8--|---- 8------ 8-------- 8---- 5--|
D|--------------------------------|-------------------- 7----------|
A|--------------------------------|-------------- 9------------ 7--|
E|---------------------------- 7--|--------------------------------|
ClassicalGuitarTablature http://classicalguitartablature.blogspot.com/
E|--------------------------------|------ 5------------------------|
B|-- 5-- 8------ 6---- 5------ 5--|------ 5------------------------|
G|-- 5-- 5------ 5---- 5------ 7--|-------------- 6----------------|
D|---------- 5---------------- 5--|-- 5------ 5-- 5----------------|
A|--------------------------------|--------------------------------|
E|---------------------------- 5--|--------------------------------|
ClassicalGuitarTablature http://classicalguitartablature.blogspot.com/
E|--------------------------------| 8------------------10-------- 8|
B| 3------ 5------ 6--10----------|10------10----13----10-------- 8|
G| 5------ 7------ 5-- 9----------|10------10------12--10-------- 9|
D| 3------ 5------ 7--10----------|--------10------11--------------|
A| 5------ 7------ 8-- 9----------|10------12----------------------|
E|--------------------------------|----------------11--10-------- 8|
ClassicalGuitarTablature http://classicalguitartablature.blogspot.com/
E|-------------- 8----------------|--------------------------------|
B|-------------- 8------ 8--------|--------------------------------|
G|---------- 9-------- 9----------|--------------------------------|
D|--------------------------------|--------------------------------|
A|--------------------------------|--------------------------------|
E|------------------------------ 8|--------------------------------|

0 ความคิดเห็น:

แสดงความคิดเห็น