To celebrate the anniversary, I am giving you (finally...) : iPhone LickByNeck !!!!!!

I'll Be Home For Christmas


I'll Be Home For Christmas played in the key of C.
ClassicalGuitarTablature http://classicalguitartablature.blogspot.com/
E|10-------------------- 8------10|---------------------- 8--------|
B|10----------------------11------| 9-------------------- 6--------|
G|---- 9------ 9--10------10------|----10------10------ 7 5--------|
D|--------------------10------ 8--|-------------------- 6------ 4--|
A| 8---- 7------------------------|--------------------------------|
E|----------------10------ 9------| 8---- 7------ 6-------- 4------|
ClassicalGuitarTablature http://classicalguitartablature.blogspot.com/
E| 3---------------------- 3------|---------------------- 5--------|
B| 1---------------------- 5------|10-------------------- 2--------|
G| 0---------- 0------ 0------ 4--| 9---------- 7 4------ 2--------|
D|---- 2-- 0-- 0------ 0----------|---- 7------ 9------ 5------ 2--|
A|------------------------ 5------|--------------------------------|
E| 3------ 1---- 0----------------| 9------ 7------ 5---- 3--------|
ClassicalGuitarTablature http://classicalguitartablature.blogspot.com/
E|10------------12-------------- 8|--------------10-------------- 8|
B|10---------- 914--------------11|-------------- 8----------------|
G| 9---------- 712------------10--|10-------------- 8---------- 7--|
D|----10--------------14------10--|---- 8------ 8------ 7------ 6--|
A| 9---- 8------------------------|--------------------------------|
E|--------------12------10--------| 9---- 8-------- 7------ 6------|
ClassicalGuitarTablature http://classicalguitartablature.blogspot.com/
E|---------------- 8--------------|---------- 3-- 5------ 7------ 8|
B| 6-------------- 8--------------| 5-------- 3-- 8------ 6------ 8|
G| 5-------------- 8-- 8----------| 5-------- 2-- 5-------- 7---- 9|
D|---- 7--------------------------|---- 5--------------------------|
A|--------------------------------|---------------- 7-- 6-- 5-- 4--|
E| 5-------------- 4--------------| 3------ 1-- 1------------------|
ClassicalGuitarTablature http://classicalguitartablature.blogspot.com/
E|---------------------- 7------10|---------------------- 8------ 3|
B|----------------------10------10|---------------------- 7------ 5|
G|---- 9------10 5------ 7--------| 8-- 8------ 8 5------ 5------ 3|
D|-------------------- 6------ 9--|-------------------- 7------ 7--|
A|-------------- 7------ 8--------| 9---- 8------ 6------ 5--------|
E| 8------10----------------------|--------------------------------|
ClassicalGuitarTablature http://classicalguitartablature.blogspot.com/
E|--------------------------------|--------------------------------|
B|------------ 8------------------|--------------------------------|
G|-------- 2-- 7-------------- 5 2|------------ 0 0-------- 4------|
D|---- 5-- 3---------- 5------ 7--|---- 3------ 0------ 2------ 3--|
A| 4------ 3----------------------|------------------------ 5------|
E|-------------- 7------ 5------ 3|-------- 1------ 0--------------|
ClassicalGuitarTablature http://classicalguitartablature.blogspot.com/
E|---------------------- 3--------|---------------------- 5--------|
B|10-------------------- 6------11|---------------------- 6--------|
G| 9------------------ 5-- 5---- 9|-------------------- 6 6--------|
D|----10------10------ 5------ 3--|---- 8------ 8------ 5------ 5--|
A|--------------------------------|10------ 8------ 7---- 6--------|
E| 8------ 7---- 5-------- 4------|--------------------------------|
ClassicalGuitarTablature http://classicalguitartablature.blogspot.com/
E|--------------------------------|--------------------------------|
B| 3------------------------------|--------------------------------|
G| 5------------ 2------------ 0--|---- 5-------------- 3----------|
D|---- 3------ 3------ 2------ 0--|---- 3------ 3------ 3------ 2--|
A| 5---- 3------ 4-------- 2------|--------------------------------|
E|--------------------------------| 5------ 4---- 3-------- 2------|
ClassicalGuitarTablature http://classicalguitartablature.blogspot.com/
E|--------------------------------|------------------------------ 0|
B| 3-------------------------- 5--| 8-------------------- 6------ 1|
G| 2------------------ 5------ 3--| 7------------------ 5-- 5---- 2|
D|---- 3------ 3------ 3------ 5--|---- 6------ 6------ 3------ 3--|
A|-------------- 5------ 4--------|--------------------------------|
E| 1------ 0----------------------| 8------ 6---- 4-------- 3------|
ClassicalGuitarTablature http://classicalguitartablature.blogspot.com/
E|------------------------ 3---- 8|---------------------- 7------10|
B|------------ 1-------- 3--------|10-------------------- 5------12|
G|------------ 1------ 0-- 4------| 9---------- 7-------- 5------10|
D|---- 2------ 0------ 0------ 3--|---- 7------ 6---- 6-------- 5--|
A|------------------------ 5------|--------------------------------|
E| 2------ 1------ 0--------------| 8---- 7------ 6------ 5--------|
ClassicalGuitarTablature http://classicalguitartablature.blogspot.com/
E|------ 8------10----------------|---------------------- 7------ 5|
B|------10------10------------ 9--|------ 5------ 7------ 7------ 8|
G|------------ 9-- 9---------- 7--|---- 5 6------ 5------ 7--------|
D|----12--------------10----------|---- 5------ 5------ 7------ 7--|
A|11----10-------- 9------ 8------| 7---- 6------ 5----------------|
E|--------------------------------|---------------------- 8--------|
ClassicalGuitarTablature http://classicalguitartablature.blogspot.com/
E|------------------------------ 3|------------------------------ 8|
B|------------------------------ 0|------------------------------ 8|
G| 7------------------ 5----------| 2---------- 0 7---- 6 5---- 4 9|
D|---- 5------ 5------ 3------ 3--|---- 3------ 0-- 5-- 5 3---- 3--|
A|--------------------------------|---------------- 7-- 6-- 5-- 4--|
E| 7------ 6------ 5------ 4------| 3------ 1----------------------|
ClassicalGuitarTablature http://classicalguitartablature.blogspot.com/
E|---------------------- 7------10|---------------------- 8------ 3|
B|----------------------10------10|---------------------- 7------ 5|
G|---- 9------10 5------ 7--------| 8-- 8------ 8 5------ 5------ 3|
D|-------------------- 6------ 9--|-------------------- 7------ 7--|
A|-------------- 7------ 8--------| 9---- 8------ 6------ 5--------|
E| 8------10----------------------|--------------------------------|
ClassicalGuitarTablature http://classicalguitartablature.blogspot.com/
E|--------------------------------|--------------------------------|
B|------------ 8------------------|--------------------------------|
G|-------- 2-- 7-------------- 5 2|------------ 0 0-------- 4------|
D|---- 5-- 3---------- 5------ 7--|---- 3------ 0------ 2------ 3--|
A| 4------ 3----------------------|------------------------ 5------|
E|-------------- 7------ 5------ 3|-------- 1------ 0--------------|
ClassicalGuitarTablature http://classicalguitartablature.blogspot.com/
E|---------------------- 3--------|---------------------- 5--------|
B|10-------------------- 6------11|---------------------- 6------ 6|
G| 9------------------ 5-- 5---- 9|-------------------- 6 6------ 5|
D|----10------10------ 5------ 3--|---- 8------ 8------ 5------ 5--|
A|--------------------------------|10------ 8------ 7---- 6------ 5|
E| 8------ 7---- 5-------- 4------|--------------------------------|
ClassicalGuitarTablature http://classicalguitartablature.blogspot.com/
E|--------------------------------|------------------------------10|
B|--------------------------------|------------------------------10|
G|-------------- 2------------ 0--|---- 5-------------- 3----------|
D|---- 7------ 7------ 2------ 0--|---- 3------ 3------ 3------ 2--|
A|-------------- 4-------- 2------|------------------------------ 8|
E|-------- 8----------------------| 5------ 4---- 3-------- 2------|
ClassicalGuitarTablature http://classicalguitartablature.blogspot.com/
E|---------------------- 8------10|---------------------- 8--------|
B|------------------------11------| 9-------------------- 6--------|
G|---- 9------ 9--10------10------|----10------10------ 7 5--------|
D|--------------------10------ 8--|-------------------- 6------ 4--|
A|------ 7------------------------|--------------------------------|
E|----------------10------ 9------| 8---- 7------ 6-------- 4------|
ClassicalGuitarTablature http://classicalguitartablature.blogspot.com/
E| 3---------------------- 3------|---------------------- 5--------|
B| 1---------------------- 5------|10-------------------- 2--------|
G| 0---------- 0------ 0------ 4--| 9---------- 7 4------ 2--------|
D|---- 2-- 0-- 0------ 0----------|---- 7------ 9------ 5------ 2--|
A|------------------------ 5------|--------------------------------|
E| 3------ 1---- 0----------------| 9------ 7------ 5---- 3--------|
ClassicalGuitarTablature http://classicalguitartablature.blogspot.com/
E|10------------12-------------- 8|--------------10-------------- 8|
B|10---------- 914--------------11|-------------- 8----------------|
G| 9---------- 712------------10--|10-------------- 8---------- 7--|
D|----10--------------14------10--|---- 8------ 8------ 7------ 6--|
A| 9---- 8------------------------|--------------------------------|
E|--------------12------10--------| 9---- 8-------- 7------ 6------|
ClassicalGuitarTablature http://classicalguitartablature.blogspot.com/
E|--------------10--------------12|--------------------------------|
B| 6------------13--------------13|--------------------------------|
G| 5------------------12--------12|--------------------------------|
D|---- 7--------------------------|--------------------------------|
A|--------------11--------------10|--------------------------------|
E| 5------------------------------|--------------------------------|
ClassicalGuitarTablature http://classicalguitartablature.blogspot.com/
E|--------------------------------|--------------------------------|
B|--------------------------------|--------------------------------|
G|--------------------------------|--------------------------------|
D|--------------------------------|--------------------------------|
A|--------------------------------|--------------------------------|
E|--------------------------------|--------------------------------|

0 ความคิดเห็น:

แสดงความคิดเห็น