To celebrate the anniversary, I am giving you (finally...) : iPhone LickByNeck !!!!!!

Jingle Bell Rock


Jingle Bell Rock played in the key of C
ClassicalGuitarTablature http://classicalguitartablature.blogspot.com/
E|---- 7------ 5 7---- 5 3--------|---- 7-------- 7------ 3--------|
B|---- 6-------- 6---- 6 3--------|---- 6-------- 6------ 3--------|
G|---- 5-------- 7---- 5 4--------|---- 5-------- 7-- 5------------|
D|---------------- 4 5------------|-------------- 5----------------|
A| 5------------------------------| 5------------------------------|
E|------------------------ 3------|---------------------- 3------ 8|
ClassicalGuitarTablature http://classicalguitartablature.blogspot.com/
E|---- 8-------- 8-------------- 8|---- 8 8-------- 7-- 7 7--------|
B|---- 8-------- 8-------------- 8|---- 8 8------ 8------ 8------10|
G|---- 7-------- 7----------------| 9-- 9 9------ 9---- 9 9--------|
D|--------------------------------|------------------------------10|
A|--------------------------------|----------------10--------------|
E|-------------- 8----------------| 8---------------------------- 8|
ClassicalGuitarTablature http://classicalguitartablature.blogspot.com/
ClassicalGuitarTablature http://classicalguitartablature.blogspot.com/
E|---- 7--------------------------|---- 7------------------------ 5|
B|----1010------------------------|10----10------------ 8-------- 6|
G| 9-- 9 9---- 9---------- 9------| 9------------ 9-------------- 5|
D|------10----10------10--10------|10------------ 8----------------|
A|------------10------------------|---------------------------- 5--|
E|--------------------------------| 8------------ 9----------------|
ClassicalGuitarTablature http://classicalguitartablature.blogspot.com/
E|---- 7 5------------------------|-------------- 3---- 5----------|
B|---- 6 6---- 6-------- 6--------| 3-- 5 6------ 3---- 3------ 3--|
G|---- 5 5---- 4-------- 4--------| 5-- 5 5------ 4---- 4------ 5--|
D|------------ 3------ 3-------- 3|---- 3 3-------------------- 3--|
A|------------------------------ 5|-------------------------- 5----|
E|------------ 3------------------|-------------- 3----------------|
ClassicalGuitarTablature http://classicalguitartablature.blogspot.com/
E|-------------- 3------ 3--------|---- 5------ 4 5---- 4 5--------|
B|---- 5 6------ 3------ 3--------|---- 4------ 4 4---- 4 4------ 4|
G|---- 5 5------ 4------ 4--------|---- 5------ 5 5-- 5-- 5------ 4|
D|---- 3 3------------------------|------------------------------ 3|
A|------------------------------ 5|--------------------------------|
E|-------------- 3----------------|------------------------------ 3|
ClassicalGuitarTablature http://classicalguitartablature.blogspot.com/
E|------------------------------ 8|---- 8-- 8---- 7---- 7 7--------|
B|---- 4------ 4---------- 4------| 8-- 8 8------ 8---- 8 8------10|
G|---- 4------ 4---------- 4---- 7|---- 7-- 7---- 9---- 9 9------ 9|
D|---- 3------ 3---------- 3------|------------------------------10|
A|------------ 4------------------|----------------10--------------|
E|-------- 3-------------------- 8|--------------------------------|
ClassicalGuitarTablature http://classicalguitartablature.blogspot.com/
E|---- 7--------------------------|---- 7------------------------ 5|
B|----1010----------------------10|------10------------ 8-------- 6|
G|---- 9 9---- 9---------- 9---- 9|-------------- 9-------------- 5|
D|------10----10------10--10----10|-------------- 8----------------|
A|------------10------------------|---------------------------- 5--|
E| 8------------------------------| 8------------ 9----------------|
ClassicalGuitarTablature http://classicalguitartablature.blogspot.com/
E|---- 7-- 5----------------------|-------------- 3---- 5----------|
B|---- 6-- 6-- 6---------- 6------| 3-- 5-- 6---- 3---- 3-------- 3|
G|---- 5-- 5---- 3-------- 3------| 5-- 5-- 5------ 4-- 4-------- 5|
D|------------ 5------ 5-------- 3|-------- 3------------------ 3--|
A|-------------- 4------------ 5--|---------------------------- 5--|
E|--------------------------------|---------------- 3--------------|
ClassicalGuitarTablature http://classicalguitartablature.blogspot.com/
E|-------------- 3------ 3--------|---- 7------ 5 7-- 5-- 3------ 8|
B|---- 5 6------ 3------ 3--------|---- 6-------- 6---- 6 3------ 8|
G|---- 5 5------ 4---- 4----------|---- 5-------- 7---- 5 4------ 7|
D|---- 3 3------------------------|--------------------------------|
A|--------------------------------| 5------------------------------|
E|-------------- 3----------------|---------------------- 3------ 8|
ClassicalGuitarTablature http://classicalguitartablature.blogspot.com/
E|------ 8-------------- 8------10|----10------ 8-------- 8------10|
B|------ 8------10------ 9------10|----10------10------10--------10|
G|------ 7------10------ 9--------| 9---------- 9---------------- 9|
D|-------------- 8----------------|--------------------------------|
A|--------------10------ 9------ 8|------------------------------ 9|
E|--------------------------------|------------ 8------------------|
ClassicalGuitarTablature http://classicalguitartablature.blogspot.com/
E|----10------ 8---------------- 8|------ 7------ 5---- 3------ 0--|
B|----10------10--------10--------| 5---- 5-------- 5-- 5------ 1--|
G|---- 9------ 9------ 9-------- 5|------ 5------ 5---- 5------ 0--|
D|--------------------------------|--------------------------------|
A|------------ 9------------------|--------------------------------|
E|------------------------------ 8|-------------- 3------------ 0--|
ClassicalGuitarTablature http://classicalguitartablature.blogspot.com/
E|-------- 0----------------------|10----10------ 8---- 5-- 8----10|
B|-------- 1---------- 1----------| 8------ 8---- 5---- 5 5------ 8|
G|---- 0------ 0------ 0----------| 9------ 9---- 5---- 5 5------ 9|
D|-------------------- 2----------| 7---------------------------- 7|
A|--------------------------------|-------------- 5----------------|
E|---------------- 3--------------|--------------------------------|
ClassicalGuitarTablature http://classicalguitartablature.blogspot.com/
E|----10------ 8-------- 8--------|---------------------------- 7--|
B|---- 8------ 5-------- 5--------|---- 8------ 810----10------10--|
G|---- 9------ 5------ 5 5--------|---- 5------ 5-- 7-- 7------ 9--|
D|--------------------------------|---- 7------ 7-- 9-- 9----------|
A|------------ 5---------------- 5|---------------- 7-- 7------ 8--|
E|--------------------------------|--------------------------------|
ClassicalGuitarTablature http://classicalguitartablature.blogspot.com/
E|--------------------------------| 8-- 8-- 8---- 7---- 7 7--------|
B|----10------ 8---------- 8------| 8-- 8-- 8------ 8-- 8 8------10|
G|---- 9------10---------- 7------| 9-- 9-- 9------ 9-- 9 9------ 9|
D|----10------ 9------ 9-- 5------|------------------------------10|
A|---- 9------10------------------|----------------10--------------|
E|------------------------ 7---- 8|------------------------------ 8|
ClassicalGuitarTablature http://classicalguitartablature.blogspot.com/
E|-- 7----------------------------|---- 7------------------------ 5|
B|--10--------------------------10|------10------ 5------ 8------ 5|
G|-- 9-- 9---- 9-------- 9------ 9|-------------- 7------ 7------ 6|
D|------10----10------10--10----10|-------------- 5------ 6--------|
A|------------10------------------|--------------------------------|
E|------------------------------ 8|-------------- 7------ 6--------|
ClassicalGuitarTablature http://classicalguitartablature.blogspot.com/
E|---- 5--------------------------|------ 8------10---- 8----------|
B|---- 5------------------------10|------ 8------ 8---- 8------ 9--|
G|---- 6---------- 9-- 9-------- 9|-------------- 9---- 9------ 8--|
D|-------------------- 7--------10|----------------------------10--|
A|---------------------------- 8--|---------------------------- 8--|
E| 5------ 7------ 9--------------|-------------- 8----------------|
ClassicalGuitarTablature http://classicalguitartablature.blogspot.com/
E|------ 8------10---- 8----------|---- 8------ 5-- 7--------------|
B|-- 9-- 9------ 9---- 9----------|---- 6------ 6-- 8--10-- 8------|
G|-- 8---------- 8---- 8----------|---- 5------ 5-- 7-- 7-- 7------|
D|--10----------------------------|-------------------- 9-- 9------|
A|------------------------------ 5|---------------- 7--------------|
E|-------------- 8----------------|--------------------------------|
ClassicalGuitarTablature http://classicalguitartablature.blogspot.com/
E|---- 8-------- 7----------------|---- 8---- 5-- 7-- 8--10------ 8|
B|----10----------10------ 8------|---- 6---- 6-- 6------ 8------ 8|
G|---- 9---------- 9-- 9-- 9------|---- 5---- 5-- 7------10------ 7|
D|------------------------10------|-------------- 5------ 9------ 7|
A| 8-------------- 9------10---- 5|--------------------------------|
E|--------------------------------|--------------------------------|
ClassicalGuitarTablature http://classicalguitartablature.blogspot.com/
E|--------------------------------|--------------------------------|
B|------------ 8------------------|--------------------------------|
G|------------ 7------------------|--------------------------------|
D|------------ 7------------------|--------------------------------|
A|--------------------------------|--------------------------------|
E|------------ 8------------------|--------------------------------|
ClassicalGuitarTablature http://classicalguitartablature.blogspot.com/

0 ความคิดเห็น:

แสดงความคิดเห็น