To celebrate the anniversary, I am giving you (finally...) : iPhone LickByNeck !!!!!!

Jingle Bell


Jingle Bell played in the key of C.
ClassicalGuitarTablature http://classicalguitartablature.blogspot.com/
E|--------------------------------|--------------------------------|
B| 6------ 6---- 6---- 6------ 6--|---- 5------ 5------ 5-------- 8|
G| 5------ 5---- 5---- 5------ 6--|---- 6------ 5------ 5-------- 5|
D| 7------ 7---- 6---- 6------ 5--|---- 5------ 4------ 4----------|
A|--------------------------------|--------------------------------|
E|--------------------------------|--------------------------------|
ClassicalGuitarTablature http://classicalguitartablature.blogspot.com/
E|--------------------------------|---- 0--------------------------|
B|------ 8------ 6---- 3------ 1--|-------------------- 1----------|
G|------ 5------ 4---- 4------ 0--|-------------------- 2----------|
D| 7---- 7------ 3---- 3------ 2--|------ 2------------ 3----------|
A| 5-------------------------- 3--|--------------------------------|
E|-------------- 3----------------|---------------- 3--------------|
ClassicalGuitarTablature http://classicalguitartablature.blogspot.com/
ClassicalGuitarTablature http://classicalguitartablature.blogspot.com/
E|--------------------------------|--------------------------------|
B| 5------ 5---------- 5------ 5--|---- 5-------------- 5-------- 5|
G| 5------ 5---------- 4------ 2--|---- 2-------------- 3----------|
D| 5------ 5---------- 5------ 5--|------ 5------------ 5----------|
A| 3-------------------------- 3--|------------ 3 4----------------|
E|-------------- 3----------------|--------------------------------|
ClassicalGuitarTablature http://classicalguitartablature.blogspot.com/
E|-------- 3----------------------|---- 3--------------------------|
B|-------------------- 3------ 5--|-------------------- 1-------- 6|
G| 5------------ 5------------ 4--|-------------- 3---- 3----------|
D| 3------------ 3------------ 5--|------ 5------ 2---- 2----------|
A| 5-------------------------- 3--|--------------------------------|
E|-------------- 3----------------|---------------- 2--------------|
ClassicalGuitarTablature http://classicalguitartablature.blogspot.com/
E|--------------------------------|--------------------------------|
B|-------- 6---------- 6------ 6--|---- 5------ 5------ 5-------- 5|
G| 5------ 5------ 7-- 7------ 5--|---- 5------ 6------ 6-------- 5|
D| 7------ 7---------- 6------ 5--|---- 5------ 5------ 5-------- 3|
A| 8-------------------------- 7--|--------------------------------|
E|---------------- 6--------------|------------ 5------------------|
ClassicalGuitarTablature http://classicalguitartablature.blogspot.com/
E|--------------------------------|-------------------- 3----------|
B|------ 3------ 3---- 5------ 3--|---- 3-------------- 4----------|
G|------ 5------ 5---- 5------ 4--|---- 4-------------- 4----------|
D|------ 3------ 3---- 3------ 3--|------ 3------------------------|
A| 5------------------------------|-------------- 4----------------|
E|-------------- 5------------ 3--|--------------------------------|
ClassicalGuitarTablature http://classicalguitartablature.blogspot.com/
E|--------------------------------|--------------------------------|
B| 5------ 5---------- 5----------| 5-- 5------ 5---------- 5------|
G| 5------ 5---------- 4----------| 2-- 2------ 3---------- 3------|
D| 5---------- 5------ 5------ 5--| 5-- 5------ 5------ 5----------|
A| 3------------------------------| 3---------- 4------------------|
E|-------------- 3----------------|--------------------------------|
ClassicalGuitarTablature http://classicalguitartablature.blogspot.com/
E|---- 3--------------------------|---- 3--------------------------|
B| 5------------------ 3------ 5--|-------------------- 1----------|
G| 5------ 5---- 5------------ 4--|-------------------- 3----------|
D| 3---------- 3-------------- 5--|------ 5------------ 2----------|
A| 5-------------------------- 3--|--------------------------------|
E|---------------- 3--------------|------------------ 2------------|
ClassicalGuitarTablature http://classicalguitartablature.blogspot.com/
E|--------------------------------|------------------ 5------------|
B| 6------ 6------ 6-- 6------ 6--|---- 5------ 5------ 5 5------ 8|
G| 5------ 5------ 7-- 7------ 5--|---- 5------ 6------ 6 6------ 5|
D| 7------ 7------ 6-- 6------ 5--|---- 5------ 5------ 5 5------ 7|
A| 8-------------------------- 7--|--------------------------------|
E|---------------- 6--------------|------------ 5------------------|
ClassicalGuitarTablature http://classicalguitartablature.blogspot.com/
E|--------------------------------|--------------------------------|
B|-------- 8---- 6---- 3------ 1--|-------------------- 1-------- 1|
G|-------- 5------ 4---------- 0--|-------- 0---------- 2----------|
D|-------- 5---- 3---- 3------ 2--|---- 2-------------- 3-------- 2|
A| 5------------------ 2------ 3--|--------------------------------|
E|-------- 5---- 3----------------|---------------- 3--------------|
ClassicalGuitarTablature http://classicalguitartablature.blogspot.com/
E|-------- 0----------------------|--------------------------------|
B|-------- 1---- 3---- 1------ 1--|------ 1---------------- 1------|
G| 0------------ 0---- 0------ 0--|------ 0-------- 0------ 0------|
D|---- 2------ 2 2---- 2------ 2--|---- 2-------------- 2----------|
A| 3-------------------------- 3--|------------------------------ 3|
E|-------------- 3----------------|---------------- 3--------------|
ClassicalGuitarTablature http://classicalguitartablature.blogspot.com/
E|-------- 0----------------------|---------------------- 1--------|
B|---------------- 3-- 1----------|------ 1---------------- 1------|
G| 0-- 0-------- 3---- 3------ 2--|-------------------- 2----------|
D|---- 2---------- 2---------- 3--|---- 3------ 3------------------|
A|--------------------------------|--------------------------------|
E|---------------- 2---------- 1--|---------------- 1--------------|
ClassicalGuitarTablature http://classicalguitartablature.blogspot.com/
E|--------------------------------|--------------------------------|
B|-------- 6------ 5-- 3----------|--------------------------------|
G|---------------- 5-- 5------ 4--|------------------------ 7------|
D| 7-- 7---------- 3-- 3------ 3--|-------------------- 5----------|
A| 5------------------------------|--------------------------------|
E|---------------- 5---------- 3--|-------- 5------ 7--------------|
ClassicalGuitarTablature http://classicalguitartablature.blogspot.com/
E|--------------------------------|------------ 3------------------|
B| 8------ 8------ 6-- 3------ 5--|------------ 5---------- 5------|
G| 7------ 6------ 5-- 4------ 4--|-------- 4-------------- 4------|
D| 6------ 5------ 4-- 3------ 5--|---- 5-------------- 5----------|
A|---------------------------- 3--|------------------------------ 3|
E| 6------ 5------ 4-- 3----------|---------------- 3--------------|
ClassicalGuitarTablature http://classicalguitartablature.blogspot.com/
E|------ 0------------------------|--------------------------------|
B|-------------- 3---- 1----------|------ 1------------------------|
G| 0------------------ 0------ 0--|------ 0---------------- 0------|
D|---- 2------ 2 2---- 2------ 2--|---- 2------ 2------ 2----------|
A|---------------------------- 3--|--------------------------------|
E|---------------- 3--------------|---------------- 3--------------|
ClassicalGuitarTablature http://classicalguitartablature.blogspot.com/
E|-------- 0----------------------|--------------------------------|
B|-------------- 3------ 1--------|-------------------- 5----------|
G| 0-------------- 3---- 3--------| 2------ 2---------- 6----------|
D|---- 2------ 2-- 3------ 2------| 3-- 3-- 3---------- 5----------|
A| 3------------------------------|--------------------------------|
E|---------------- 3------ 2------| 1-------------- 5--------------|
ClassicalGuitarTablature http://classicalguitartablature.blogspot.com/
E|--------------------------------|--------------------------------|
B|-------- 6------ 5-- 3-------- 8|---- 8---- 8-- 8------ 8--------|
G| 2------ 5------ 4-- 0-------- 7|---- 7---- 7---- 6---- 6--------|
D| 3------ 4------ 3-- 0----------| 6-- 6---- 6---- 5------ 8------|
A| 5------------------------------| 7---------------------- 6------|
E|-------- 4------ 3---- 1--------|-------- 6-- 6-- 5--------------|
ClassicalGuitarTablature http://classicalguitartablature.blogspot.com/
E| 5------------------------------|-------------------- 3----------|
B| 6------ 8---- 5---- 3-------- 1|------ 1------------ 1----------|
G| 5------ 7---- 5---- 4-------- 0|------ 0------------ 2----------|
D|-------- 9---- 7---- 3-------- 2|------ 2------ 3----------------|
A| 5------ 7---- 8----------------| 3------------------------------|
E|-------------------- 3----------|---------------- 3--------------|
ClassicalGuitarTablature http://classicalguitartablature.blogspot.com/
E|--------------------------------|--------------------------------|
B| 5------ 5---------- 5------ 5--|---- 5-------------- 5-------- 5|
G| 5------ 5---------- 4------ 2--|---- 2-------------- 3-------- 5|
D| 5------ 5---------- 5------ 5--|------ 5------------ 5-------- 3|
A| 3-------------------------- 3--|-------------- 4-------------- 5|
E|---------------- 3--------------|--------------------------------|
ClassicalGuitarTablature http://classicalguitartablature.blogspot.com/
E|------ 3------------------------|-------- 3----------------------|
B|------------ 5------ 3------ 5--|-------- 5---------- 1----------|
G|------------ 5 5------------ 4--|-------------------- 3----------|
D|---------------------------- 5--|---- 5---------- 2-- 2----------|
A|---------------------------- 3--|--------------------------------|
E|---------------- 3--------------|---------------- 2--------------|
ClassicalGuitarTablature http://classicalguitartablature.blogspot.com/
E|--------------------------------|--------------------------------|
B| 6------ 6---- 6---- 6------ 6--|---- 5------ 5------ 5-------- 5|
G| 5------ 5---- 7---- 7------ 5--|---- 5------ 6------ 6 3------ 5|
D| 7------ 7---- 6---- 6------ 5--|---- 5------ 5------ 5-------- 3|
A| 8-------------------------- 7--|-------------------- 6-------- 5|
E|-------------- 6----------------|------------ 5------------------|
ClassicalGuitarTablature http://classicalguitartablature.blogspot.com/
E|---------------------- 0--------|--------------------------------|
B|---- 5---- 3 3 3------ 1------ 3|-------------------- 8----------|
G|---- 5---- 0-- 2------ 2------ 4|-------------------- 7----------|
D|---- 3---- 0-- 3-------------- 3|-------------------- 5----------|
A|--------------------------------|--------------------------------|
E|-------- 0------ 1---- 2--------| 3------ 5------ 7--------------|
ClassicalGuitarTablature http://classicalguitartablature.blogspot.com/
E|--------------------------------|--------------------------------|
B| 5---- 5------------ 5-------- 5|---- 5------ 5------ 5 5------ 5|
G| 5------ 5---- 7---- 7-------- 7|---- 7------ 6------ 6-------- 5|
D| 5---- 5------------ 5----------| 5-- 5------ 5------ 5-------- 3|
A|--------------------------------|--------------------------------|
E| 8------------ 7----------------| 6---------- 5------------------|
ClassicalGuitarTablature http://classicalguitartablature.blogspot.com/
E|------ 3-------------------- 0--|------ 0------------------------|
B|------ 5------ 3---- 3------ 1--|------ 1------------------------|
G|-------------- 5------------ 2--|---- 2-------- 2---- 2----------|
D|-------------- 3----------------|-------------- 1---- 1----------|
A|--------------------------------|------------ 0 2----------------|
E| 4-------------- 3---------- 2--|--------------------------------|
ClassicalGuitarTablature http://classicalguitartablature.blogspot.com/
E|--------------------------------|--------------------------------|
B| 6------ 6------ 6-- 6------ 6--|---- 5------ 5-------- 5------ 8|
G| 6------ 6------ 6-- 6------ 6--|---- 6------ 5-------- 5------ 5|
D| 6------ 6------ 5-- 5------ 5--|---- 5------ 4------ 4-------- 7|
A|---------------- 6--------------|------------ 5------------------|
E| 6-------------------------- 5--|--------------------------------|
ClassicalGuitarTablature http://classicalguitartablature.blogspot.com/
E|--------------------------------|--------------------------------|
B|------ 8------ 8---- 8------10--|------10------12------12--------|
G|------ 5-------- 7-- 7------ 9--|------ 9------10--------10------|
D|------ 7-------- 9-- 9------10--|----10--------12--------12------|
A| 5-------------- 7---------- 8--|----------------10--------------|
E|--------------------------------|--------------------------------|
ClassicalGuitarTablature http://classicalguitartablature.blogspot.com/
E| 8---- 8-------- 8-- 8------ 8--|---- 8-------- 8----------------|
B| 8---- 8-------- 7-- 7------ 6--|---- 6-------- 5----------------|
G| 9------ 9------ 8-- 8----------|-------------- 5----------------|
D|--------------------------------|--------------------------------|
A|--------------------------------|--------------------------------|
E| 8-------------- 8---------- 8--|-------------- 8----------------|
ClassicalGuitarTablature http://classicalguitartablature.blogspot.com/
E|--------------------------------|--------------------------------|
B|--------------------------------|--------------------------------|
G|--------------------------------|--------------------------------|
D|--------------------------------|--------------------------------|
A|--------------------------------|--------------------------------|
E|--------------------------------|--------------------------------|
ClassicalGuitarTablature http://classicalguitartablature.blogspot.com/

0 ความคิดเห็น:

แสดงความคิดเห็น