To celebrate the anniversary, I am giving you (finally...) : iPhone LickByNeck !!!!!!

Joy to the world


Joy to the world played in the key of C.
ClassicalGuitarTablature http://classicalguitartablature.blogspot.com/
E|------ 1-------------- 1--------|-------- 1------ 5------ 7---- 8|
B| 1-- 1 1---- 1-- 1---- 1--------| 1-- 1-- 1------ 3---- 5------ 8|
G| 2-- 2 2---- 2-- 2---- 2--------| 2-- 2-- 2------ 5------ 7---- 9|
D| 3-- 3------ 3-- 3--------------| 3-- 3---------- 3------ 5------|
A|--------------------------------|--------------------------------|
E| 3-------- 3-- 3---- 3----------|--------------------------------|
ClassicalGuitarTablature http://classicalguitartablature.blogspot.com/
E|-------- 7----------------------|--------------------------------|
B|--------10--10-- 8---------- 6--| 5------ 3------ 1------ 1-- 8--|
G|-------- 9-- 9-- 7---------- 6--| 5------ 0------ 0------ 0------|
D|---------------- 5---------- 5--| 3------ 3 3---- 2-- 2----------|
A|-------- 8------ 7--------------| 5------ 2------ 3--------------|
E| 8---------------------- 5------|--------------------------------|
ClassicalGuitarTablature http://classicalguitartablature.blogspot.com/
ClassicalGuitarTablature http://classicalguitartablature.blogspot.com/
E| 5---- 5-- 5-- 7-------- 7---- 8|-------------- 8------------ 8--|
B| 8---- 8-- 8-- 6-------- 6---- 8|---------- 8--------------------|
G| 5-- 5---- 5-- 7-------- 7---- 7|------ 7------------------------|
D|-------------- 5----------------|---- 7------------ 7------------|
A| 5------------------------------|--------------------------------|
E|------------------------------ 8|--------------------------------|
ClassicalGuitarTablature http://classicalguitartablature.blogspot.com/
E| 8---- 7 5----------------------|--------------------------------|
B| 5---- 5 5-- 8 8---- 6 5-- 1-- 1|-- 0---------------------- 5----|
G| 5---- 5 5-- 5 5---- 5 5--------|------ 2---- 0 0----------------|
D|------------ 5 5---- 5 5--------|-------------------- 3-- 2------|
A|---------------- 7------------ 3|--------------------------------|
E| 8------------------------------|------ 3-------- 0--------------|
ClassicalGuitarTablature http://classicalguitartablature.blogspot.com/
E|--------------------------------|--------------------------------|
B| 5-- 5-- 5 5 6 8---- 8------ 5--| 3-- 3-- 3 3 5-- 6-- 6-- 9 3----|
G| 4-- 4-- 5 5 5 7-- 7-------- 6--| 5-- 5-- 5------ 5-- 5---- 5----|
D| 5-- 5-- 7 7 6------ 5------ 5--| 3-- 3-- 3------ 3-- 3-- 9 5--10|
A| 3------ 8------ 7--------------| 5------------------------------|
E|------------------------ 5------|-------- 5------ 4------ 3------|
ClassicalGuitarTablature http://classicalguitartablature.blogspot.com/
E|---- 8--------------------------|--------------------------------|
B|----10----10-- 8------ 6 5-- 6 5|-------- 3---- 1------ 1--------|
G|-- 9-------- 8-- 7---- 6 6---- 5|-------- 4---- 0------ 0------ 9|
D|------------ 7-- 6---- 5 5------| 3------ 3------ 2-- 2----------|
A| 9-------------- 7--------------| 5-------------- 3------------ 9|
E|------------ 7-------- 5--------|-------- 3----------------------|
ClassicalGuitarTablature http://classicalguitartablature.blogspot.com/
E| 8------ 7----------------------|------------------------------ 5|
B|10------ 710-- 8-------- 8 7-- 5|------ 3------ 1------ 1-- 8-- 6|
G|---- 9 8-- 8-- 7-------- 6 6-- 5|------ 4-------- 0---- 0--------|
D|------ 7-- 7---- 5 5---- 5 5-- 3|-- 3-- 3-- 3-- 2-- 2------------|
A|---------------- 7--------------| 5------------ 3-------------- 5|
E|------ 7---------------- 5------|-------- 3----------------------|
ClassicalGuitarTablature http://classicalguitartablature.blogspot.com/
E|------ 5-- 5-- 7------ 7------ 8|------ 8------ 8------ 8--------|
B|------ 6-- 8--10------10--12-- 8|------ 8------ 8------ 8--------|
G|-- 5------ 5-- 9-- 9------10----| 7---- 7------ 7-- 7------------|
D|--------------------------12----|------------------------------ 7|
A|---------- 7-- 8----------10----|------------------------------ 7|
E|--------------------------------| 6-------- 6-- 7-------------- 8|
ClassicalGuitarTablature http://classicalguitartablature.blogspot.com/
E| 8------------------------------|--------------------------------|
B| 8------------------------------|--------------------------------|
G| 7------------------------------|--------------------------------|
D|--------------------------------|--------------------------------|
A|--------------------------------|--------------------------------|
E|--------------------------------|--------------------------------|
ClassicalGuitarTablature http://classicalguitartablature.blogspot.com/

0 ความคิดเห็น:

แสดงความคิดเห็น