To celebrate the anniversary, I am giving you (finally...) : iPhone LickByNeck !!!!!!

Let It Be

Beatles classic fingerstyle solo guitar arrangement played in the key of E.

Let It Be played in the key of E.
Classical Guitar Tablature http://classicalguitartablature.blogspot.com/
E|12----11-- 9---- 7--------------|--------------------------------|
B|12---- 9----10-- 9----10---- 9--| 7------ 5-- 5 5------ 5--------|
G| 9----11---- 9-- 9-- 9 7---- 9--| 8---- 8 6-- 6 4---- 4----------|
D|---------------------- 7---- 7--| 9-- 9-- 7-- 7 6-- 6------------|
A| 0----11---- 9-- 7--------------|--------------------------------|
E|------------------------10-- 9--| 7------ 5------ 0--------------|
Classical Guitar Tablature http://classicalguitartablature.blogspot.com/
E|--------------------------------|--------------------------------|
B| 5---- 4---- 2 0----------------|---------------------------- 0 0|
G| 6---- 4---- 2 1---- 1 2---- 1--|------------------------------ 1|
D| 7 7-- 4---- 2 2-- 2-- 4---- 2--| 4-- 4 2-------- 2------ 2---- 2|
A|------------------------ 5-- 4--| 6 6-- 4---- 4-- 2-- 2----------|
E| 5------ 4-- 2-- 0--------------| 7------ 5------ 0------------ 0|
Classical Guitar Tablature http://classicalguitartablature.blogspot.com/
E|---------------------------- 2--| 4------------------------------|
B|---- 0-- 2---- 4-------- 5-- 4--| 5-- 9-- 9-- 7-- 5------ 5-- 5--|
G|------------ 1-- 4------ 5-- 2--|-- 4-- 8 9-- 6-- 6-- 6-- 4-- 4--|
D|------------ 2------ 4-- 4------|-- 6-- 7---- 6---- 6-- 6 4-- 3--|
A|-------- 2-- 4-- 6------ 5-- 3--| 4------------------------------|
E|--------------------------------|------ 8 7-- 6-- 5------ 4-- 3--|
Classical Guitar Tablature http://classicalguitartablature.blogspot.com/
E| 4---- 4 5-- 4-------- 4--------|--------------------------------|
B| 2-- 2 4 7-- 5-- 7---- 5---- 7--| 5---- 4-- 2-- 0------------ 0 0|
G|-- 2-- 4 6-- 6-- 9---- 5---- 6--| 6-- 6 4---- 2-- 1-- 1 2------ 1|
D|---------------- 7---------- 5 7|---- 7 4---- 2 2-- 2---------- 2|
A|------------------------ 5-- 6 7|-------- 6-- 4------------------|
E| 2---- 4 5-- 6-- 7-- 9----------|---------------- 0------------ 0|
Classical Guitar Tablature http://classicalguitartablature.blogspot.com/
E|---------------------------- 2--| 4------------------------------|
B|---- 0-- 2---- 4-------- 5-- 4--| 5-- 9-- 9-- 7-- 5------ 5-- 5--|
G|------------ 1-- 4------ 5-- 2--|-- 4-- 8 9-- 6-- 6-- 6-- 4-- 4--|
D|------------ 2------ 4-- 4------|-- 6-- 7---- 6---- 6-- 6 4-- 3--|
A|-------- 2-- 4-- 6------ 5-- 3--| 4------------------------------|
E|--------------------------------|------ 8 7-- 6-- 5------ 4-- 3--|
Classical Guitar Tablature http://classicalguitartablature.blogspot.com/
E| 4---- 4 5-- 4-------- 4--------|--------------------------------|
B| 2-- 2 4 7-- 5-- 7---- 5---- 7--| 5------ 9--14--12------ 9-- 7--|
G|-- 2-- 4 6-- 6-- 9---- 5---- 6--| 6-- 6-- 8--11-- 9------ 8-- 5--|
D|---------------- 7---------- 5 7|---- 7-- 9--14------ 9--11-- 6--|
A|------------------------ 5-- 6 7|-------- 9--12--11------ 9-- 6--|
E| 2---- 4 5-- 6-- 7-- 9----------|--------------------------------|
Classical Guitar Tablature http://classicalguitartablature.blogspot.com/
E|---------------- 9------ 7-- 7--|---------------- 4--------------|
B| 5------ 9----121212---- 9-- 4--| 9 7------------ 5---- 5---- 5--|
G| 4------ 6---- 9--11-- 9 8-- 4--| 9-- 9-- 6-- 4------ 4------ 4--|
D| 6 6---- 9---- 9------11--------| 7------ 6-- 4---- 4------ 3----|
A| 4-- 6 7----11--11--10-- 9-- 6--|--------------------------------|
E|--------------------------------| 9---- 8-- 7-- 5 4------ 3------|
Classical Guitar Tablature http://classicalguitartablature.blogspot.com/
E|-------- 5-- 4-- 4--------------|--------------------------------|
B| 9-- 9-- 7-- 7-- 5-- 7-- 9-- 7--| 5---- 7---- 7-- 9------ 9-- 7--|
G| 9-- 7-- 6-- 6-- 5-- 6-- 7-- 7--| 6---- 4---- 6-- 9---- 9 8-- 5--|
D| 7-- 9-------------- 7-- 6-- 7--| 7-- 7-- 4-- 7-- 9 9----11-- 6--|
A| 9-- 8-- 7-- 6------------------| 4------ 6-- 7--11------ 9-- 6--|
E|---------------- 4-- 5-- 6-- 7--|--------------------------------|
Classical Guitar Tablature http://classicalguitartablature.blogspot.com/
E|---------------- 9------ 7-- 7--|---------------- 4--------------|
B| 5------ 9----121212---- 9-- 4--| 9 7------------ 5---- 5---- 5--|
G| 4------ 6---- 9--11-- 9 8-- 4--| 9-- 9-- 6-- 4------ 4------ 4--|
D| 6 6---- 9---- 9------11--------| 7------ 6-- 4---- 4------ 3----|
A| 4-- 6 7----11--11--10-- 9-- 6--|--------------------------------|
E|--------------------------------| 9---- 8-- 7-- 5 4------ 3------|
Classical Guitar Tablature http://classicalguitartablature.blogspot.com/
E|-------- 5-- 4-- 4--------------|------------------------------12|
B| 9-- 9-- 7-- 7-- 5-- 7-- 9-- 7--| 5----------------------------12|
G| 9-- 7-- 6-- 6-- 5-- 6-- 7-- 7--| 6------ 8-- 6 4---------- 4-- 9|
D| 7-- 9-------------- 7-- 6-- 7--|---- 7-- 6-- 4 2---------- 2----|
A| 9-- 8-- 7-- 6------------------| 4---------------------------- 0|
E|---------------- 4-- 5-- 6-- 7--|-------- 7-- 5 4---- 2 0---- 4--|
Classical Guitar Tablature http://classicalguitartablature.blogspot.com/
E|------11-- 9-- 7----------------|--------------------------------|
B|------ 9--10-- 9---- 910---- 9--| 7------ 5-- 5 5------ 5--------|
G|-- 9--11-- 9-- 9------ 7---- 9--| 8---- 8 6-- 6 4---- 4----------|
D|---------------------- 7---- 7--| 9-- 9-- 7-- 7 6-- 6------------|
A|------11-- 9-- 7----------------|--------------------------------|
E|------------------------10-- 9--| 7------ 5------ 0--------------|
Classical Guitar Tablature http://classicalguitartablature.blogspot.com/
E|--------------------------------|--------------------------------|
B| 5---- 4---- 2 0----------------|--------------------------------|
G| 6---- 4---- 2 1---- 1 2---- 1--|--------------------------------|
D| 7 7-- 4---- 2 2-- 2-- 4---- 2--| 4-- 4 2-------- 2------ 2------|
A|------------------------ 5-- 4--| 6 6-- 4---- 4-- 2-- 2----------|
E| 5------ 4-- 2-- 0--------------| 7------ 5------ 0--------------|
Classical Guitar Tablature http://classicalguitartablature.blogspot.com/

0 ความคิดเห็น:

แสดงความคิดเห็น