To celebrate the anniversary, I am giving you (finally...) : iPhone LickByNeck !!!!!!

Let it snow


Let it snow played in the key of D.
ClassicalGuitarTablature http://classicalguitartablature.blogspot.com/
E|--------------------------------|-------------- 5-------------- 5|
B|10---- 8------ 7---- 5------ 3--|---- 3-------- 3-------------- 7|
G| 7---- 7------ 6---- 6------ 2--|---- 4---------------- 2------ 6|
D| 9---- 9------ 5---- 5------ 4--|---- 5---- 5--------------------|
A| 7-------------------------- 5--|------------------------------ 5|
E|-------------- 5----------------|---- 5--------------------------|
ClassicalGuitarTablature http://classicalguitartablature.blogspot.com/
E|---- 5--------------------------|--------------------------------|
B|---- 7 8------ 7---- 5------ 3--|--------------------------------|
G|---- 6 6------ 6---- 6------ 2--|---- 2------ 2------ 2----------|
D|------ 7------ 7---- 7------ 4--|-------- 4---------- 4----------|
A|---------------------------- 5--|---------------- 5--------------|
E|-------------- 5----------------|--------------------------------|
ClassicalGuitarTablature http://classicalguitartablature.blogspot.com/
E|--------------------------------|--------------------------------|
B|--------------------------------|--------------------------------|
G| 9------ 7------ 9-- 7------ 6--|-------------------- 6----------|
D| 7------ 7------ 7-- 7------ 7--|---- 7-------------- 7----------|
A| 9-------------- 8---------- 7--|--------------------------------|
E|--------------------------------|---------------- 5--------------|
ClassicalGuitarTablature http://classicalguitartablature.blogspot.com/
E| 7-- 7--------------------------|---------------------- 9-- 7----|
B| 8-- 810------ 8---- 7------ 5--|------ 5----------------------10|
G| 7-- 7 7------ 8---- 8------ 7--|------ 7------------------------|
D|------ 9------ 7---- 7------ 5--|---- 5------------------------ 9|
A| 7-------------------------- 7--|------------------------------ 7|
E|-------------- 7----------------|-------------- 7----------------|
ClassicalGuitarTablature http://classicalguitartablature.blogspot.com/
E|--------------------------------|------------------------------ 5|
B|------10-- 8-- 7------ 7-- 5-- 3|---- 3------ 3---------------- 7|
G|------ 7-- 7-- 6-------------- 2|---- 2------ 4---------- 2------|
D|------ 9-- 7-- 5-------------- 4|---- 4------ 5------------------|
A|------ 7---------------------- 5|--------------------------------|
E|-------------- 5----------------|------------ 5------------------|
ClassicalGuitarTablature http://classicalguitartablature.blogspot.com/
E|--------------------------------|--------------------------------|
B|-------- 8---- 7---- 5------ 3--|--------------------------------|
G| 6------ 6---- 6---- 6------ 2--|---- 2-------------- 2----------|
D|-------- 7---- 7---- 7------ 4--|-------- 4---------- 4----------|
A| 5-------------------------- 5--|---------------- 5--------------|
E|---------------- 5--------------|--------------------------------|
ClassicalGuitarTablature http://classicalguitartablature.blogspot.com/
E|--------------------------------|------------------------------ 7|
B|--------------------------------|------------------------------ 8|
G| 9------ 7---- 9---- 7------ 6--|-------------------- 6-------- 7|
D| 7------ 7---- 9---- 9------ 7--|---- 7-------------- 5----------|
A| 9------------ 8------------ 7--|--------------------------------|
E|--------------------------------|-------------- 5----------------|
ClassicalGuitarTablature http://classicalguitartablature.blogspot.com/
E|---- 7--------------------------|---------------------- 9-- 7----|
B|---- 8--10---- 8---- 7------ 5--|------ 5----------------------10|
G|---- 7-- 7---- 8---- 8 7---- 7--|------ 7------------------------|
D|-------- 9---- 7---- 7------ 5--|---- 5------ 5---------------- 9|
A| 7-------------------------- 7--|------------------------------ 7|
E|-------------- 7----------------|-------------- 7----------------|
ClassicalGuitarTablature http://classicalguitartablature.blogspot.com/
E|--------------------------------|--------------------------------|
B|------10---- 8 7------ 7---- 5 3|-------- 3-------------- 2---- 5|
G|------ 7---- 7 6------ 6------ 2|-------- 2-------------------- 2|
D|------ 9---- 7 5------ 5------ 4|-------- 4-------------------- 2|
A|--------------------------------| 5---------------------------- 0|
E|-------------- 5----------------|---------------- 5--------------|
ClassicalGuitarTablature http://classicalguitartablature.blogspot.com/
E|---- 2-------------- 5----------|-------------------------- 0----|
B|------ 5------ 2---- 2------ 5--|---- 5 5-------------- 2------ 3|
G|------ 2------ 2------------ 2--|---- 2 2---------------------- 2|
D|------ 2------ 2------------ 2--|------------ 2------------------|
A|---------------------------- 0--|--------------------------------|
E|-------------- 0----------------|-------------- 0----------------|
ClassicalGuitarTablature http://classicalguitartablature.blogspot.com/
E|--------------------------------|--------------------------------|
B|---- 3 2------ 0------ 0--------| 2---------------------- 2---- 5|
G|---- 2 2------ 2---- 2----------| 2---------------------------- 2|
D|------ 0------ 0----------------|------ 2---------------------- 2|
A| 2------------------------------| 0---------------------------- 0|
E|-------------- 0----------------|-------------- 0----------------|
ClassicalGuitarTablature http://classicalguitartablature.blogspot.com/
E|---- 2-------------- 5----------|--------------------------------|
B|------ 5------ 2---- 2------ 2--| 5------ 5--------------------10|
G|------ 2------ 2------------ 2--| 2------ 2------------ 2------ 8|
D|-------------- 2----------------| 2-------------------- 2------ 7|
A|--------------------------------| 0------------------------------|
E|-------------- 0----------------|-------------- 0------------ 7--|
ClassicalGuitarTablature http://classicalguitartablature.blogspot.com/
E|--------------------------------|------------------------------ 5|
B|-- 9-- 7------ 9---- 7 9------10|----10------ 7---------------- 7|
G|---- 8 8------ 7---- 7 7------ 7|---- 7------ 6------ 2-------- 6|
D|---- 7 7------ 9---- 9 9------ 9|---- 9------ 5------------------|
A|-------------- 7------ 7--------|-- 7-------------------------- 5|
E|--------------------------------|------------ 5------------------|
ClassicalGuitarTablature http://classicalguitartablature.blogspot.com/
E|---- 5--------------------------|--------------------------------|
B|---- 7-- 8---- 7---- 5------ 3--|--------------------------------|
G|---- 6-- 6---- 6---- 6------ 2--|---- 2-------------- 2-------- 9|
D|------ 7------ 7---- 7------ 4--|-------------------- 4-------- 7|
A|---------------------------- 5--|-------------- 5----------------|
E|-------------- 5----------------|--------------------------------|
ClassicalGuitarTablature http://classicalguitartablature.blogspot.com/
E|--------------------------------|--------------------------------|
B|--------------------------------|--------------------------------|
G|-------- 7---- 9---- 7------ 6--|------------ 6------ 6----------|
D|-------- 7---- 9---- 9------ 7--|---- 7-------------- 5----------|
A| 9------------ 8------------ 7--|------------------------------ 7|
E|--------------------------------|---------------- 5--------------|
ClassicalGuitarTablature http://classicalguitartablature.blogspot.com/
E| 7------------------------------|---------------------- 9-- 7----|
B| 8------10------ 8-- 7------ 5--|------ 5----------------------10|
G| 7------ 7------ 8-- 8------ 7--|------ 7---------------------- 7|
D|-------- 9------ 7-- 7------ 5--|---- 5------------------------ 9|
A|---------------------------- 7--|------------------------------ 7|
E|---------------- 7--------------|-------------- 7----------------|
ClassicalGuitarTablature http://classicalguitartablature.blogspot.com/
E|--------------------------------|---------------------- 9-- 7----|
B|------10---- 8 7------ 7-- 5-- 3|------ 3----------------------10|
G|------ 7---- 7 6------ 6------ 2|------ 2---------------------- 7|
D|------ 9---- 7 5------ 5------ 4|------ 4---------------------- 9|
A|------------------------------ 5|------------------------------ 7|
E|-------------- 5----------------|-------------- 5----------------|
ClassicalGuitarTablature http://classicalguitartablature.blogspot.com/
E|--------------------------------|--------------------------------|
B|------10------10------ 8------ 7|------ 7-------- 5------ 5---- 3|
G|------ 7------ 7------ 7------ 6|------ 6-------- 3------ 3---- 2|
D|---- 9------ 9 9------ 6--------|---- 5---------- 5-- 5-------- 4|
A|--------------------------------|---------------- 4---------- 4--|
E|------------------------ 6---- 5|------------ 5------------------|
ClassicalGuitarTablature http://classicalguitartablature.blogspot.com/
E|--------------------------------|------------------------ 2------|
B|-------- 3----------------------|---------------------- 3--------|
G|-------- 2----------------------|---------------------- 2--------|
D|--------------------------------|---------------------- 4--------|
A| 5------------------------------|-- 2-- 4---- 5-------- 5--------|
E|------------ 2-- 3-- 4------ 5--|--------------------------------|
ClassicalGuitarTablature http://classicalguitartablature.blogspot.com/
E|--------------------------------|--------------------------------|
B|--------------------------------|--------------------------------|
G|--------------------------------|--------------------------------|
D|--------------------------------|--------------------------------|
A|--------------------------------|--------------------------------|
E|--------------------------------|--------------------------------|

0 ความคิดเห็น:

แสดงความคิดเห็น