To celebrate the anniversary, I am giving you (finally...) : iPhone LickByNeck !!!!!!

Let's Stay Together

Al Green's Classic Arranged for solo guitar.

Let's Stay Together played in the key of G.
ClassicalGuitarTablature http://classicalguitartablature.blogspot.com/
E|------ 7------------------------|--------------------------------|
B|------ 8----------10--10--------|------ 8------------10----10----|
G|------ 9------------ 7 7--------|-------- 5---------- 7---- 7----|
D|-------------------- 7-- 7------|-------- 5---------- 7---- 7----|
A|--------------------------------|------------------------ 7------|
E| 8------------ 7----------------| 5-------------- 7--------------|
ClassicalGuitarTablature http://classicalguitartablature.blogspot.com/
E|-------- 7----------------------|--------------------------------|
B|-------- 8--------10----10------|-------- 8---------- 5-------- 0|
G|-------- 9-------- 7---- 7------|-------- 5---------- 5-------- 0|
D|------------------ 7---- 7------|-------- 5---------- 5-------- 0|
A|--------------------------------|---------------- 5--------------|
E| 8-------------- 7------------ 5|--------------------------------|
ClassicalGuitarTablature http://classicalguitartablature.blogspot.com/
E|--------------------------------|--------------------------------|
B|------ 0 0------------------ 0--|---- 0-- 0------ 0-- 0 3---- 3--|
G|------ 0 0---- 7-------- 0------|---- 0---------- 2-- 2 2-- 2-- 0|
D|------ 0-------------------- 0--|---- 0---------- 0-- 0 1---- 1--|
A|------------------ 5------------|--------------------------------|
E| 3-------- 5-- 7------------ 3--|-------- 3------ 2-- 2-- 1-- 1 0|
ClassicalGuitarTablature http://classicalguitartablature.blogspot.com/
E| 2------------------------------|--------------------------------|
B| 0------ 3---- 3---- 3----------|--------------------------------|
G|-------- 0---- 2---- 2------ 4--|---- 4 5-------------- 7-- 7----|
D|---------------- 1-- 1------ 2--|---- 2 4------ 9-- 9-- 6-- 6-- 5|
A|--------------------------------|--------------------------------|
E|---------------- 2---------- 3--|-------- 5---- 7-- 7-- 6-- 6-- 5|
ClassicalGuitarTablature http://classicalguitartablature.blogspot.com/
E|--------------------------------|--------------------------------|
B| 5------------------------------|--------------------------------|
G| 5------ 5---------- 7----------|---- 5---------- 5---- 5--------|
D|------------ 5------ 6----------|---- 5---------- 5------ 5---- 8|
A|--------------------------------|--------------------------------|
E|---------------- 7---------- 8--|---------------- 8-- 8-- 8---- 8|
ClassicalGuitarTablature http://classicalguitartablature.blogspot.com/
E|--------------------------------|--------------------------------|
B|--------------------------------|-------------------- 1-------- 0|
G| 8------ 7---- 5---- 5------ 0--|-------- 0---- 3---- 3-------- 0|
D|-------- 8---------- 5------ 1--|---- 1---- 1-- 1---- 1----------|
A|--------------------------------|--------------------------------|
E|-------------- 6------------ 3--|---------------------------- 2--|
ClassicalGuitarTablature http://classicalguitartablature.blogspot.com/
E|--------------------------------|--------------------------------|
B|---- 0-- 0------------------ 0--|---- 0-- 0---- 0-------- 3------|
G|---- 0-- 0---- 7------------ 0--|---- 0-- 0------ 2------ 2---- 0|
D| 0-- 0-------- 5------------ 0--|---- 0-- 0-------- 0---- 1------|
A|-------------------- 5----------|--------------------------------|
E| 3------ 3 5-- 7------------ 3--|---------------- 2------ 1---- 0|
ClassicalGuitarTablature http://classicalguitartablature.blogspot.com/
E| 2------------------------------|--------------------------------|
B| 0------ 3------ 3-- 3----------|------------------------------ 5|
G|-------- 0------ 2-- 2------ 4--|------ 5-------------- 7-- 7----|
D|---------------- 1-- 1-- 1-- 2--|------ 4------ 9---- 9 6-- 6-- 5|
A|--------------------------------|--------------------------------|
E|------------ 0-- 2---------- 3--|-------- 5------ 7-- 7 6------ 5|
ClassicalGuitarTablature http://classicalguitartablature.blogspot.com/
E|--------------------------------|------------------------------10|
B|--------------------------------|------------------------------ 8|
G| 5------ 5---------- 7----------|---- 5-------- 5-------- 5------|
D|-------- 5---------- 6------ 5--|---- 5-------- 5-------- 5------|
A|--------------------------------|--------------------------------|
E|---------- 5-- 7------------ 8--|-------------- 8-------- 8------|
ClassicalGuitarTablature http://classicalguitartablature.blogspot.com/
E|----10--------------------------|--------------------------------|
B|----------11---- 8------ 4------|--------------------------------|
G| 8-- 8----10---- 5------ 3-- 5--|------ 5------------------------|
D|------------ 9-- 8------ 3-- 5--|---- 5 5-------- 5-- 6-- 7------|
A|---------------- 6--------------|--------------------------------|
E| 8----------10---------- 3-- 6--|---------------- 3-- 4-- 5------|
ClassicalGuitarTablature http://classicalguitartablature.blogspot.com/
E|--------------------------------|--------------------------------|
B|10----------10-- 7-- 5------ 3--|-------- 3------ 0--------------|
G| 7---------- 7-- 5-- 5---- 4 4--|---- 4-------------- 2---- 0 0--|
D| 7---------- 7-- 5-- 5---- 4 4--|------------ 0 0----------------|
A|--------------------------------|--------------------------------|
E| 7-------------- 5---------- 3--|-------------- 2----------------|
ClassicalGuitarTablature http://classicalguitartablature.blogspot.com/
E|--------------------------------|--------------------------------|
B| 7------ 7---------- 7------ 7--|-------- 7---- 7------ 7--------|
G| 7------ 7---------- 5------ 9--|-------- 9---- 7------ 7--------|
D| 5------ 5---------- 7------ 9--|-------------- 8-------- 6------|
A| 7-------------- 6--------------|--------------------------------|
E|----------------------------10--|----10-- 9-- 9-- 8-- 8-- 6-- 6--|
ClassicalGuitarTablature http://classicalguitartablature.blogspot.com/
E|--------------------------------|------------------------ 5------|
B|10------10---- 7------ 5------ 3|-------- 3-------------- 2------|
G| 7------ 7---- 7------ 7------ 4|-------- 4------ 4-- 4-- 4------|
D| 7------ 7---- 5------ 5--------| 4------ 4------ 2-- 2----------|
A|--------------------------------|--------------------------------|
E| 7------ 7---- 5-- 5---- 5------| 3-- 3-- 3------ 2-- 2-- 2------|
ClassicalGuitarTablature http://classicalguitartablature.blogspot.com/
E| 2---- 2------------------------|--------------------------------|
B| 0---- 0------------ 3----------|---- 5-------- 5------ 8--------|
G| 0-- 0-------------- 4----------|---- 7---------- 7---- 7--------|
D|-------------------- 2----------|---- 5---------- 7---- 6--------|
A|--------------------------------|--------------------------------|
E| 0---------- 2-- 3------ 3-- 4 6| 7------ 7------ 7-- 7 6-- 6----|
ClassicalGuitarTablature http://classicalguitartablature.blogspot.com/
E| 7---- 7------------------------|--------------------------------|
B| 5---- 5------------ 8----------|-------- 5------------ 8------10|
G| 5-- 5-------------- 9----------|-------- 5------ 9---- 9------ 7|
D|-------------------- 7----------|---- 5---------- 9---- 8------ 7|
A|------------------------ 7------|--------------------------------|
E| 5---------- 7-- 8------------ 5|---------------- 9------ 8------|
ClassicalGuitarTablature http://classicalguitartablature.blogspot.com/
E|--------------------------------|--------------------------------|
B|------ 7----------10------------|-------- 7---- 5------ 8--------|
G|------ 7----------11-------- 7--|-------- 7---- 7------ 7--------|
D|---- 7-- 7-------- 9-- 9---- 7--|---- 7-- 7---- 7------ 6--------|
A|---------------------- 9--------|--------------------------------|
E| 7-------- 8 910------------ 7--|------------ 0 7---- 0-- 6------|
ClassicalGuitarTablature http://classicalguitartablature.blogspot.com/
E|------------------------ 0------|--------------------------------|
B| 8-- 5------ 5---------- 1------| 8------ 5------ 8-- 5------ 8--|
G| 5-- 5------ 5---------- 0------| 7------ 6------ 5-- 4------ 5--|
D| 5-- 5------ 5------------------| 5------ 5------ 7-- 3------ 5--|
A|--------------------------------|-------- 6------ 5-- 4----------|
E| 5---------- 3---------- 1------| 0-------------------------- 8--|
ClassicalGuitarTablature http://classicalguitartablature.blogspot.com/
E|--------------------------------|--------------------------------|
B|------ 5------ 8---- 5---- 8----|------------ 8---- 8---------- 8|
G|------ 5------ 7---- 7------ 9--|-- 7-- 9---- 9---- 9-- 9------ 9|
D|------ 5------ 5---- 5------ 9--|------------10----10-- 9------ 9|
A|---------------------------- 7--|--------------------------------|
E|---------------- 7--------------|------------10-------- 9------ 8|
ClassicalGuitarTablature http://classicalguitartablature.blogspot.com/
E|--------------------------------|------------------------------ 7|
B|-------------- 8-------- 8-- 8--|------------ 8------ 8-------- 8|
G|-- 9---------- 9-- 9-------- 9--|---- 7-- 9-- 9------ 9-- 9---- 9|
D|-- 9---------- 7---- 7------ 9--|---- 9-- 9--10------10-- 9------|
A|---------------------------- 7--|--------------------------------|
E|---- 8 8-- 8-- 7---- 7-- 7------|------------10---------- 9---- 8|
ClassicalGuitarTablature http://classicalguitartablature.blogspot.com/
E|-------------- 7------------ 7--|------------ 7------ 7----------|
B|---- 8-------- 8------------ 8--|-------- 8-- 8------ 8-- 8------|
G|---- 9---------- 7-- 7------ 7--|---- 9 7---- 9------ 9-- 9------|
D|-------------------- 7----------|---- 9------------------ 9------|
A|---------------------------- 7--|--------------------------------|
E|-------- 8---- 7-------- 7------|------------10---------- 9---- 8|
ClassicalGuitarTablature http://classicalguitartablature.blogspot.com/
E|-------- 7----------------------|-------------------- 5-- 5 5----|
B|-------- 8--------10--10--------|------ 8------------ 5---- 5----|
G|-------- 9-------- 7-- 7--------|------ 5------------ 5---- 5----|
D|------------------ 7-- 7--------|------ 5------------------------|
A|--------------------------------|-------------- 5----------------|
E| 8-------------- 7------------ 5|--------------------------------|
ClassicalGuitarTablature http://classicalguitartablature.blogspot.com/
E| 5-------------- 2--------------|--------------------------------|
B| 3------------------------------|--------------------------------|
G| 4------------------------------|--------------------------------|
D|--------------------------------|--------------------------------|
A|--------------------------------|--------------------------------|
E| 3------------------------------|--------------------------------|

0 ความคิดเห็น:

แสดงความคิดเห็น