To celebrate the anniversary, I am giving you (finally...) : iPhone LickByNeck !!!!!!

The Little Drummer Boy


The Little Drummer Boy played in the key of F.
ClassicalGuitarTablature http://classicalguitartablature.blogspot.com/
E|------ 3------ 5------ 6------ 8|------ 8------ 8------10------11|
B|------ 6------ 3------ 5------ 7|------ 6------11------10--------|
G|---- 0 3------ 3------ 5------ 5|------ 5--------10---- 9--------|
D|---- 2------ 3------ 3------ 5--|---- 7------ 4------ 8------ 8--|
A|------ 5------ 3----------------|----------------10------ 9------|
E| 0-------------------- 6------ 5|-------- 4----------------------|
ClassicalGuitarTablature http://classicalguitartablature.blogspot.com/
E|----10 8------------------------|10-- 8-- 6------ 5------------ 8|
B|10--10 6------11----------------|10--10-- 6------ 6------------10|
G| 8---- 5---- 5--10--------------| 8-- 8-- 7---------- 5------ 5 9|
D|-------------------- 8------ 8--|------------ 7------------------|
A| 8---- 6------------------------|--------------------------------|
E|----------------10------ 9------| 8------ 6------ 5------ 3------|
ClassicalGuitarTablature http://classicalguitartablature.blogspot.com/
E|------ 5------ 3----------------|--------------------------------|
B|----11 8------ 6----------------|--------------------------------|
G|---- 9 5------ 3----------------|---- 3-- 5---------- 3------ 2--|
D|----10------ 5------ 3------ 3--|---- 3------ 5------ 3------ 1--|
A| 8------ 7------ 5------ 3------|--------------------------------|
E|--------------------------------| 6------ 5------ 3------ 2------|
ClassicalGuitarTablature http://classicalguitartablature.blogspot.com/
E|---------------------- 3--------| 5------------ 5-------- 5---- 6|
B| 6-------------------- 6--------| 6------------ 6-------- 6------|
G| 5---------- 5------ 5 3--------| 7------------ 6-------- 6------|
D| 7-- 7------ 5------ 7------ 5--|---- 7------ 7------ 5------ 5--|
A| 8------ 7------ 5------ 4------|--------------------------------|
E|------------------------------ 8|------ 7-------- 6------ 5------|
ClassicalGuitarTablature http://classicalguitartablature.blogspot.com/
E|---- 5 6-------- 5--------------|--------------------------------|
B| 3-- 3 4-------- 1------ 4------|--------------------------------|
G| 3-- 3 3-------- 2-- 2-- 2-- 2--| 3---------- 4------ 5 7---- 7 7|
D|------------ 2------------------|---- 3------ 3------ 3-- 5-- 5--|
A|--------------------------------|--------------------------------|
E| 3------ 2------ 1------ 2------| 3---- 4------ 5-------- 6---- 7|
ClassicalGuitarTablature http://classicalguitartablature.blogspot.com/
E|------------------------------ 5|------ 5---------------------- 6|
B|------ 6------ 6------ 8------ 6|------ 8--------10------10------|
G|------ 7------ 3------ 5--------| 6------ 5------ 7------ 8------|
D|---- 7------ 7------ 5------ 7--|---- 5------ 5------ 7--10--10--|
A|-------------- 4------ 5--------| 6------ 7------ 8------ 9------|
E|-------- 8----------------------|--------------------------------|
ClassicalGuitarTablature http://classicalguitartablature.blogspot.com/
E|---- 5-- 6------ 5--------------|--------------------------------|
B| 3-- 3-- 6------ 6--------------|--------------------------------|
G| 3-- 3-- 5------ 5---------- 4--| 3------------------ 0-- 4------|
D|------------ 4------ 5------ 3--|---- 3------ 3------ 2-- 3------|
A|--------------------------------|------------------------ 5-- 4--|
E| 3------ 4------ 5------ 4------| 3------ 1------ 0--------------|
ClassicalGuitarTablature http://classicalguitartablature.blogspot.com/
E|---------------- 5---- 6------ 8|------ 8------ 8------10------ 8|
B|------ 8-------- 6---- 6------11|--------11---- 8------ 8------ 6|
G| 5---- 5-------- 5------ 5----10|-------- 8---- 7---- 7 7--------|
D|---- 5------ 5------ 7------ 4--|---- 8------10-------------- 8--|
A|--------------------------------|10------ 9------ 8---- 7--------|
E| 8------ 6------ 5------ 4------|--------------------------------|
ClassicalGuitarTablature http://classicalguitartablature.blogspot.com/
E|---- 6 5------ 3----------------|--------------------------------|
B|---- 6-- 3---- 6----------------|--------------------------------|
G| 6-- 6-- 3---- 3------------ 3 5|------------ 5 3----------------|
D|------------ 3------ 5------ 5--|---- 5------ 3------ 3------ 3--|
A| 6------ 5------ 4---- 3--------|--------------------------------|
E|------------------------------ 6|-------- 5---- 3-------- 1---- 0|
ClassicalGuitarTablature http://classicalguitartablature.blogspot.com/
E|------ 3------ 5------ 6------ 8|------ 8------ 8------10------11|
B|------ 6------ 3------ 5------ 7|------ 6------11------10--------|
G|---- 0 3------ 3------ 5------ 5|------ 5--------10---- 9--------|
D|---- 2------ 3------ 3------ 5--|---- 7------ 4------ 8------ 8--|
A|------ 5------ 3----------------|----------------10------ 9------|
E|---------------------- 6------ 5|-------- 4----------------------|
ClassicalGuitarTablature http://classicalguitartablature.blogspot.com/
E|----10 8------------------------|10-- 8-- 6------ 5------------ 8|
B|10--10 6------11----------------|10--10-- 6------ 6------------10|
G| 8---- 5---- 5--10--------------| 8-- 8-- 7---------- 5------ 5 9|
D|-------------------- 8------ 8--|------------ 7------------------|
A| 8---- 6------------------------|--------------------------------|
E|----------------10------ 9------| 8------ 6------ 5------ 3------|
ClassicalGuitarTablature http://classicalguitartablature.blogspot.com/
E|------ 5------ 3----------------|------------------------------ 1|
B|----11 8------ 6----------------|--------------------------------|
G|---- 9 5------ 3----------------|---- 3-- 5---------- 3------ 2--|
D|----10------ 5------ 3------ 3--|---- 3------ 5------ 3------ 1--|
A| 8------ 7------ 5------ 3------|--------------------------------|
E|--------------------------------| 6------ 5------ 3------ 2------|
ClassicalGuitarTablature http://classicalguitartablature.blogspot.com/
E|---------------------- 3------ 5|------ 5------ 5------ 5--------|
B| 1-------------------- 6------ 6|------ 6------ 6------ 6--------|
G| 2-- 2------ 3 3------ 5------ 5|------ 5------ 7------ 5--------|
D|------------ 1------ 3---- 3----|---- 5------ 5------ 7------ 7--|
A|--------------------------------|--------------------------------|
E| 1---- 2-------- 3---- 4------ 5|------ 6-------- 7------ 8------|
ClassicalGuitarTablature http://classicalguitartablature.blogspot.com/
E|--------------------------------|--------------------------------|
B|11--10--11----10----------------|--------------------------------|
G|10--10--10------10----------10--| 2---------- 3------ 5------ 7--|
D| 8-- 8------ 8------11------12--|---- 0------ 2------ 3------ 5--|
A|--------------------------------|--------------------------------|
E| 9------10----11-------- 0------| 1------ 3---- 5-------- 6------|
ClassicalGuitarTablature http://classicalguitartablature.blogspot.com/
E|--------------------------------|--------------------------------|
B| 8-- 6 8------ 6----------------| 6------ 6-------- 6------------|
G| 7-- 7-- 7---- 3----------------| 3------ 6------ 7--------------|
D| 7-- 7------ 8------ 5----------| 3------ 5------ 7--------------|
A|---------------- 4--------------| 5------ 6---- 8----------------|
E| 7---- 8------------------------|--------------------------------|
ClassicalGuitarTablature http://classicalguitartablature.blogspot.com/
E|--------------------------------|--------------------------------|
B|--------------------------------|--------------------------------|
G|--------------------------------|--------------------------------|
D|--------------------------------|--------------------------------|
A|--------------------------------|--------------------------------|
E|--------------------------------|--------------------------------|

0 ความคิดเห็น:

แสดงความคิดเห็น