To celebrate the anniversary, I am giving you (finally...) : iPhone LickByNeck !!!!!!

Mickey Mouse Club Theme

Mickey Mouse Club Theme fingerstyle chord melody guitar arrangement played in the key of E.

http://classicalguitartablature.blogspot.com/
Mickey Mouse Club theme played in the key of E.
Classical Guitar Tablature http://classicalguitartablature.blogspot.com/
E|--------------------------------|--------------------------------|
B| 5-- 5 5---- 5 5---- 5 5---- 5 5|---- 5------ 5 5---- 5 5---- 5 5|
G| 4-- 4 4---- 4 4---- 4 4---- 4 4|---- 4------ 4 4---- 4 4---- 4--|
D| 6-- 6 6---- 6 6---- 6 4---- 4 6|---- 6 6---- 6 6---- 6 4---- 4--|
A| 7-------------- 4---- 6------ 6|---------------- 4---- 6--------|
E|------ 7------------------------|------ 7------------------------|
Classical Guitar Tablature http://classicalguitartablature.blogspot.com/
E|--------------------------------|--------------------------------|
B|---- 5-- 4-- 4 2---- 2 4---- 4 5|---- 5 4---- 4 2-- 2-- 4-- 4-- 5|
G| 4-- 4-- 4-- 4 2---- 2 4---- 4 4|---- 4 4---- 4 2-- 2-- 4-- 4-- 4|
D| 6-- 6-- 4-- 4 2---- 2 4---- 4 6|---- 6 4---- 4 2-- 2-- 4-- 4-- 6|
A| 7------------ 4------ 6--------|------ 2------ 4------ 6------ 7|
E|-------- 7-------------------- 0|--------------------------------|
Classical Guitar Tablature http://classicalguitartablature.blogspot.com/
E|--------------------------------|--------------------------------|
B|---- 5 5---- 5 5---- 5 5---- 5 7|---- 5 4------------------------|
G|---- 4 4---- 4 4---- 4 4---- 4 6|---- 6------ 6 4-------- 4------|
D|------ 4------ 6---- 6 6---- 6 7|---- 7-------------- 2-- 4------|
A|------ 6------ 4----------------|------------------------ 2------|
E|------------------------ 7---- 5|------ 4-------- 2--------------|
Classical Guitar Tablature http://classicalguitartablature.blogspot.com/
E|------------------------------ 4|--------------------------------|
B| 5-- 5-- 5---- 5---- 5 5------ 5|---- 5-- 7-- 4-- 5------ 4------|
G| 4-- 4-- 4------ 2-- 2 2--------| 6------ 4-- 4-- 4------ 4------|
D| 6-- 6-- 4------ 2-- 2 2--------|---------------- 6------ 7------|
A| 7------ 5------ 4------ 3------|-------- 6----------------------|
E|------------------------------ 7|---------------- 0------ 7------|
Classical Guitar Tablature http://classicalguitartablature.blogspot.com/
E|--------------------------------| 2------------------------------|
B| 5-- 5-- 5-- 5-- 5-- 5 5---- 5--| 2-- 5-- 4----------------------|
G| 4------ 7-- 7-- 4-- 4 4---- 4--| 2-- 4-- 6-- 6 4-------- 2------|
D| 6-- 6-- 7-- 6-- 4-- 4 4---- 3--|---- 4-- 6-- 6-- 4------ 1------|
A|--------------------------------|---------------- 2--------------|
E| 0------ 7-- 6-- 5-- 5-- 4-- 3--| 2-- 4-- 5-- 6---------- 1------|
Classical Guitar Tablature http://classicalguitartablature.blogspot.com/
E| 0---- 0---------------------- 4|--------------------------------|
B| 0-- 0 3------ 5---- 5 5------ 5|-- 5-- 7-- 4-- 5------ 5---- 5--|
G| 1-- 1-- 2---- 4---- 4 5------ 6|-- 6-- 6-- 2-- 5------ 7---- 7--|
D|-------------- 3---- 3 4--------|-- 6-- 7-- 4-- 4------ 7---- 6--|
A|--------------------------------|------------ 3 5----------------|
E| 0------ 2---- 3---- 3 4------ 5|-- 6-- 7-------------- 7---- 6--|
Classical Guitar Tablature http://classicalguitartablature.blogspot.com/
E|-------- 5------ 5--------------|------ 4---- 4-- 4--------------|
B| 2------ 2-- 2-- 2------ 5-- 5--|-------- 2-- 2-- 2-- 2-------- 2|
G| 2-- 2-- 2-- 2-- 2------ 2-- 2--| 4-- 4 4---- 4-- 4-- 4-------- 3|
D| 2-- 2------------------ 2------| 2-- 2--------------------------|
A|--------------------------------|------------------------ 2------|
E| 5------ 4------ 2------ 0------| 4------ 2------ 0--------------|
Classical Guitar Tablature http://classicalguitartablature.blogspot.com/
E|--------------------------------|------ 7------------------------|
B|---- 2---- 2---------- 4---- 5 7|------ 7------12------12------ 5|
G|---- 3---- 4-- 6---- 6 4---- 2 4|------ 8------ 9------13------ 4|
D| 2-- 2---- 2-- 4---- 4 4---- 2 4|-------------- 9------13------ 6|
A|------------------------ 2-- 4 6|------ 9------11------12--------|
E| 2------ 4-- 4 6----------------|------------------------------ 7|
Classical Guitar Tablature http://classicalguitartablature.blogspot.com/
E|------------------------------ 2|--------------------------------|
B|---- 5---- 5-- 5---- 5---- 5-- 2|---- 5-- 4-- 2------------------|
G|---- 4---- 6-- 5---- 5---- 4-- 2|---- 2-- 2-- 2-- 4------ 4------|
D|---- 6---- 6-- 4---- 4---- 4----|---- 2-- 2-- 2-- 4------ 3------|
A|--------------------------------|---------------- 6------ 5------|
E|-------- 6-- 6-- 5---- 4---- 4--| 2------ 0----------------------|
Classical Guitar Tablature http://classicalguitartablature.blogspot.com/
E|------------------------------ 4|---- 4--------------------------|
B| 5-- 5-- 5------ 5-- 5-- 5---- 5|---- 5 5---- 5 7---- 7 4-- 4-- 5|
G| 4-- 4-- 2------ 4-- 4-- 6---- 5|---- 5 5---- 5 4---- 4 3---- 3 2|
D| 2-- 2-- 4------ 6-- 6-- 4------|------ 4---- 4 4---- 4 2---- 2 2|
A| 4------ 3----------------------|------ 5------------------------|
E|---------------- 7------ 6---- 5|-------------- 4------ 3------ 2|
Classical Guitar Tablature http://classicalguitartablature.blogspot.com/
E|---------------- 0---------- 0--|--------------------------------|
B|---------------- 0------------ 2|--------------------------------|
G|-------------- 2-------------- 1|--------------------------------|
D|-------------- 3----------------| 2------------------------------|
A|-------------- 3----------------| 2------------------------------|
E|-------------- 1----------------|-- 0----------------------------|
Classical Guitar Tablature http://classicalguitartablature.blogspot.com/

0 ความคิดเห็น:

แสดงความคิดเห็น