To celebrate the anniversary, I am giving you (finally...) : iPhone LickByNeck !!!!!!

O Come All Ye Faithful


O Come All Ye Faithful played in the key of A.
ClassicalGuitarTablature http://classicalguitartablature.blogspot.com/
E|--------------------------------|---------------------- 5------ 5|
B| 5------------ 5---------- 5-- 5|-------------- 5------ 5------ 5|
G| 2---- 2------ 2------ 2------ 2|------ 2------ 2-------------- 6|
D|-- 2-------------- 2------------|-- 2-------------- 2------ 2----|
A|--------------------------------|-------------- 0----------------|
E| 5-------------- 5--------------| 5-------- 5------------------ 5|
ClassicalGuitarTablature http://classicalguitartablature.blogspot.com/
E|---------------------- 5------ 7|------------------------------ 9|
B|-------------- 5-------------- 5|-------------- 5--------------10|
G|------ 6---------------------- 7|------ 7-------------- 7------ 9|
D|-- 7-------------- 7------ 7----|---- 7------------ 7------ 7----|
A|--------------------------------|--------------------------------|
E|---------- 5-- 5-------------- 5|---------- 5-- 5----------------|
ClassicalGuitarTablature http://classicalguitartablature.blogspot.com/
E|-------------- 9------10------ 9|-------------- 7---------- 5-- 5|
B|------12------10----------10--10|-------------- 5---------- 5-- 2|
G|------------------ 9------------| 9---- 9-------- 4---- 4-- 4-- 2|
D|----11--------------------------|----11------------ 6------------|
A| 0-------- 0-- 0----------------| 0---------- 0------------------|
E|--------------------------------|---------------- 4-------- 4----|
ClassicalGuitarTablature http://classicalguitartablature.blogspot.com/
E|-------------- 4------ 2------ 4|-------- 5---- 7------ 9--------|
B|-------------- 5------ 5------ 5|-------- 2---- 5-------- 5------|
G|------ 2---------- 4---------- 4|-------- 2------ 4-------- 6----|
D|-- 4----------------------------|---- 6---- 2-------- 6----------|
A|------------------------------ 7|-------- 4----------------------|
E| 2---------- 2-- 0-------- 0----|---------------- 4------ 5------|
ClassicalGuitarTablature http://classicalguitartablature.blogspot.com/
E|--------------------------------|------------------------------12|
B| 9-------------- 7--------------| 5------------------------------|
G| 9------ 9------ 8------ 8-- 9--|-------- 4------ 4--------------|
D|---- 9-------------- 9----------|---- 6------------ 6------ 6----|
A|--------------------------------|---------------------- 5--------|
E| 7---------- 7-- 7---------- 7--| 0---------- 0-- 0--------------|
ClassicalGuitarTablature http://classicalguitartablature.blogspot.com/
E|--------------10------ 9--------|10------------ 9-------------- 7|
B|10------------ 9------ 5--------|------10------10------10------ 5|
G| 9---- 9------ 9-------- 6------|--11-------------- 9---------- 4|
D|--11-------------- 9------ 7----|--------------------------------|
A|--------------------------------| 0-------- 0---- 0-------- 0----|
E| 9-------- 9-- 7-------- 5------|------------------------------ 4|
ClassicalGuitarTablature http://classicalguitartablature.blogspot.com/
E|------ 9-------- 5------ 7------| 4---------- 2------------ 5-- 5|
B|------ 5-------- 3------ 5------| 5---------- 3 5---------- 5-- 5|
G|------ 6-------- 2---------- 4--| 4---------- 1 4---------- 4-- 6|
D|-- 6-------- 7------ 4----------|---- 6-------------- 6----------|
A|------------------------ 5------| 7------ 2----------------------|
E|------ 5-------- 2--------------|---------------- 0------------ 5|
ClassicalGuitarTablature http://classicalguitartablature.blogspot.com/
E|------------------------------ 5|---------------------- 9------ 9|
B|------ 9------10------12------ 5|------------ 5-- 5------ 9------|
G|------ 7------ 9------11--------| 6---------- 4-- 2------ 9------|
D|-- 7------ 9-------- 7---- 9----|---- 7------ 6------ 2------ 9--|
A|--------------------------------| 7------ 5------ 4--------------|
E|------ 7------ 9------10--------|------------------------ 7------|
ClassicalGuitarTablature http://classicalguitartablature.blogspot.com/
E|-------- 7---- 9--------10---- 9|------------ 7-- 7---- 9------10|
B| 5------ 9----10--------12------|10----------10-- 5---- 5--------|
G| 6------ 7---- 9--------11------|---- 9------ 7-- 4---- 6-- 6----|
D|---- 7---- 9--------11---- 9----|------------ 7------ 6----------|
A|--------------------------------| 7------ 9----------------------|
E| 5------ 7---- 9--------10------|---------------- 4---- 5--------|
ClassicalGuitarTablature http://classicalguitartablature.blogspot.com/
E|------ 9------ 7-------- 5---- 4|-------------- 5------10--------|
B| 7------ 5------ 5------ 4---- 5|-------------- 2------10--------|
G| 7-------- 6---- 4------ 2------| 4------------ 2--------11------|
D|---- 9-------------- 6------ 4--|---- 6---- 6------ 2--------12--|
A|--------------------------------|------ 5------ 4----------------|
E| 7------ 5------ 4------ 2------| 0----------------------10------|
ClassicalGuitarTablature http://classicalguitartablature.blogspot.com/
E| 9------------ 7----------------| 5-------------------- 9------10|
B|10------10------ 9--------10----| 5------------------------------|
G|---- 9---------- 9---- 9-- 9----| 6------------------------------|
D|------------------ 9------ 9----|---- 7------ 7------ 7------ 7--|
A|--------------------------------|--------------------------------|
E| 0---------- 0-- 0---------- 0--| 5------ 0---- 5----------------|
ClassicalGuitarTablature http://classicalguitartablature.blogspot.com/
E|------ 9------ 7-------- 5---- 4|-------------- 5------10--------|
B| 7------ 5------ 5------ 4---- 5|-------------- 2------10--------|
G| 7-------- 6---- 4------ 2------| 4------------ 2--------11------|
D|---- 9-------------- 6------ 4--|---- 6---- 6------ 2--------12--|
A|--------------------------------|------ 5------ 4----------------|
E| 7------ 5------ 4------ 2------| 0----------------------10------|
ClassicalGuitarTablature http://classicalguitartablature.blogspot.com/
E| 9------------ 7----------------| 5-------------------- 9------10|
B|10------10------ 9--------10----| 5------------------------------|
G|---- 9---------- 9---- 9-- 9----| 6------------------------------|
D|------------------ 9------ 9----|---- 7------ 7------ 7------ 7--|
A|--------------------------------|--------------------------------|
E| 0---------- 0-- 0---------- 0--| 5------ 0---- 5----------------|
ClassicalGuitarTablature http://classicalguitartablature.blogspot.com/
E|------ 9------ 7-------- 5---- 4|-------------- 5------10--------|
B| 7------ 5------ 5------ 4---- 5|-------------- 2------10--------|
G| 7-------- 6---- 4------ 2------| 4------------ 2--------11------|
D|---- 9-------------- 6------ 4--|---- 6---- 6------ 2--------12--|
A|--------------------------------|------ 5------ 4----------------|
E| 7------ 5------ 4------ 2------| 0----------------------10------|
ClassicalGuitarTablature http://classicalguitartablature.blogspot.com/
E| 9---------- 9------------ 9-- 7|------------------------------ 5|
B|10------10------------10------10|------------------------10---- 5|
G|---- 9------------ 9---------- 9|------ 9------------------ 7-- 6|
D|--------------------------------|-- 7------ 7-------- 9----------|
A|--------------------------------|--------------------------------|
E| 0--------------10------------ 9|-------------- 7----------------|
ClassicalGuitarTablature http://classicalguitartablature.blogspot.com/
E|--------------------------------|--------------------------------|
B|--------------------------------|--------------------------------|
G|--------------------------------|--------------------------------|
D|--------------------------------|--------------------------------|
A|--------------------------------|--------------------------------|
E| 5---- 0-------- 5--------------|--------------------------------|

0 ความคิดเห็น:

แสดงความคิดเห็น