To celebrate the anniversary, I am giving you (finally...) : iPhone LickByNeck !!!!!!

Overjoyed

Stevie Wonder's classic hit fingerstyle chord melody guitar arrangement played in the key of E.

Overjoyed played in the key of E.
Classical Guitar Tablature http://classicalguitartablature.blogspot.com/
E|--------------------------------|--------------------------------|
B|12------12----12----------12----|12--------12----12--------12----|
G|11----11----1110------10----10--| 9---- 9---- 9--10----10----10--|
D|-- 9-------------- 9------------|1010----------10-- 9---------- 9|
A|--------------------------------|--------------------------------|
E|10-------------- 9--------------| 8-------------- 9--------------|
Classical Guitar Tablature http://classicalguitartablature.blogspot.com/
E|--------------------------------|--------------------------------|
B|12------12----12----------12----|12--------12---- 5------ 4------|
G|11----11--11--10----10------10--| 9---- 9---- 9-- 6---------- 4--|
D| 9-- 9------------ 9---------- 9|10--10---------- 7--------------|
A|--------------------------------|--------------------------------|
E|10-------------- 9--------------| 8-------------- 7--------------|
Classical Guitar Tablature http://classicalguitartablature.blogspot.com/
Classical Guitar Tablature http://classicalguitartablature.blogspot.com/
E|--------------------------------|--------------------------------|
B| 5------ 5-------------- 4------| 5-------- 4---- 5------ 4------|
G| 4---- 4-- 4---------- 4-- 4----| 4---- 4---- 4-- 4-------- 4----|
D| 6-- 6------ 6---- 4------------|---- 6-------- 6---- 4---- 3----|
A| 7------------ 6----------------| 4------------------------------|
E|--------------------------------|-------- 7------ 4------ 3------|
Classical Guitar Tablature http://classicalguitartablature.blogspot.com/
E|--------------------------------|--------------------------------|
B|--------------------------------|-------------------- 4 5-- 4----|
G| 2-- 2-- 4------ 6-- 6-- 6---- 4|---- 4-- 2-- 2---- 5-------- 4--|
D| 2---- 2-- 4------ 6------ 4-- 4|------ 4-- 2---- 4---------- 4--|
A|--------------------------------| 2---- 4------ 5------------ 6--|
E| 2------ 4---- 5------ 6--------|--------------------------------|
Classical Guitar Tablature http://classicalguitartablature.blogspot.com/
E|--------------------------------|--------------------------------|
B| 0------------------ 5 5---- 4--|------ 5---- 4-- 0--------------|
G| 1---- 1-- 4-- 4---- 4 4---- 5--| 4---- 2---- 2-- 1---- 1--------|
D|---- 2------ 2---- 6-- 4---- 4--|-- 2---- 4---------- 2-- 2 2----|
A|---------------------- 6---- 5--| 4------ 3------ 2--------------|
E| 0------ 4------ 7--------------|------------------------ 4------|
Classical Guitar Tablature http://classicalguitartablature.blogspot.com/
E|--------------------------------|--------------------------------|
B|------------------------ 2------|--------------------------------|
G| 6---- 6-- 6-------- 3-- 3------| 5-- 5---- 1-- 1-- 1-- 1-- 1----|
D| 4-- 4------ 4---- 4-- 4---- 4--| 6---------- 1------ 1---- 1----|
A|--------------------------------| 6------ 3----------------------|
E| 6------ 4------ 2------ 0------|---------------- 4------ 2------|
Classical Guitar Tablature http://classicalguitartablature.blogspot.com/
E|--------------------------------|--------------------------------|
B| 4---- 2-- 1--------------------|--------------------------------|
G| 1---- 1-- 1-- 3---- 3----------| 3-- 3 5-- 3-- 5------------ 1--|
D| 3---- 3-- 1-- 3-- 3-- 3--------| 1-- 1 5-- 5-- 4------------ 1--|
A|---------- 3---- 4--------------| 3-------------- 6--------------|
E| 1---- 4---------------- 6-- 7--|-------- 6---------- 6-- 4------|
Classical Guitar Tablature http://classicalguitartablature.blogspot.com/
E|--------------------------------|--------------------------------|
B| 4---- 2------------------------|------ 4-- 2-- 4-------- 4------|
G| 4-- 4 4-- 4-- 3---- 3------ 4--| 6---- 4-- 3-- 4------------ 4--|
D| 2-- 2 2-- 2-- 2------ 2-- 2----| 4---- 4-- 4-- 4----------------|
A| 4------------------------------|---------- 4-- 6----------------|
E|------ 4-- 3-- 2-- 2---- 4------| 6---- 7------------------------|
Classical Guitar Tablature http://classicalguitartablature.blogspot.com/
E|--------------------------------|--------------------------------|
B| 5------ 5-------------- 4------| 5-------- 4---- 5------ 4------|
G| 4---- 4-- 4---------- 4-- 4----| 4---- 4---- 4-- 4-------- 4----|
D| 6-- 6------ 6---- 4------------|---- 6-------- 6---- 4---- 3----|
A| 7------------ 6----------------| 4------------------------------|
E|--------------------------------|-------- 7------ 4------ 3------|
Classical Guitar Tablature http://classicalguitartablature.blogspot.com/
E|--------------------------------|--------------------------------|
B|--------------------------------|-------------------- 4 5-- 4----|
G| 2-- 2-- 4------ 6-- 6-- 6---- 4|---- 4-- 2-- 2---- 5-------- 4--|
D| 2---- 2-- 4------ 6------ 4-- 4|------ 4-- 2---- 4---------- 4--|
A|--------------------------------| 2---- 4------ 5------------ 6--|
E| 2------ 4---- 5------ 6--------|--------------------------------|
Classical Guitar Tablature http://classicalguitartablature.blogspot.com/
E|--------------------------------|--------------------------------|
B| 0------------------ 5 5---- 4--|------ 5---- 4-- 0--------------|
G| 1---- 1-- 4-- 4---- 4 4---- 5--| 4---- 2---- 2-- 1---- 1--------|
D|---- 2------ 2---- 6-- 4---- 4--|-- 2---- 4---------- 2-- 2 2----|
A|---------------------- 6---- 5--| 4------ 3------ 2--------------|
E| 0------ 4------ 7--------------|------------------------ 4------|
Classical Guitar Tablature http://classicalguitartablature.blogspot.com/
E|--------------------------------|--------------------------------|
B|------------------------ 2------|--------------------------------|
G| 6---- 6-- 6-------- 3-- 3------| 5-- 5---- 1-- 1-- 1-- 1-- 1----|
D| 4-- 4------ 4---- 4-- 4---- 4--| 6---------- 1------ 1---- 1----|
A|--------------------------------| 6------ 3----------------------|
E| 6------ 4------ 2------ 0------|---------------- 4------ 2------|
Classical Guitar Tablature http://classicalguitartablature.blogspot.com/
E|--------------------------------|--------------------------------|
B| 4---- 2-- 1--------------------|--------------------------------|
G| 1---- 1-- 1-- 3---- 3----------| 3-- 3 5-- 3-- 5------------ 1--|
D| 3---- 3-- 1-- 3-- 3-- 3--------| 1-- 1 5-- 5-- 4------------ 1--|
A|---------- 3---- 4--------------| 3-------------- 6--------------|
E| 1---- 4---------------- 6-- 7--|-------- 6---------- 6-- 4------|
Classical Guitar Tablature http://classicalguitartablature.blogspot.com/
E|--------------------------------|--------------------------------|
B| 4---- 2------------------------|------ 4-- 2-- 4---------- 4 5 7|
G| 4-- 4 4-- 4-- 3---- 3------ 4--| 6---- 4-- 3-- 4------ 4 6-- 6 6|
D| 2-- 2 2-- 2-- 2------ 2-- 2----| 4---- 4-- 4-- 4-------- 6-- 5--|
A| 4------------------------------|---------- 4-- 6------------ 6--|
E|------ 4-- 3-- 2-- 2---- 4------| 6---- 7---------------- 6------|
Classical Guitar Tablature http://classicalguitartablature.blogspot.com/
E| 4------------------------------|------ 4-- 2--------------------|
B| 5---- 7------ 7-- 7-- 7--------| 7---- 5-- 4-- 5-- 5-- 5--------|
G| 4---- 9-- 6-- 6-- 6-- 6-- 6----| 4---- 5-- 2-- 4-- 4-- 4-- 4----|
D|------ 7-- 6-- 6-- 6-- 5-- 5----| 4------------ 6-- 6-- 3-- 3----|
A|--------------------------------|------ 5-- 3-- 4----------------|
E| 5---- 8-- 7---- 6------ 5------| 4---------------------- 3-- 3--|
Classical Guitar Tablature http://classicalguitartablature.blogspot.com/
E|------ 2-- 2--------------------|--------------------------------|
B| 5---- 3-- 3-- 4-- 4------------| 3-- 3 2-- 2-- 2-- 2-- 2-- 6 7 9|
G| 2---- 3------ 2-- 2-- 4-- 4 6--| 4-- 4 4-- 4-- 4-- 4---- 8-- 8--|
D| 2------------ 4-- 4------ 6----| 4-- 4 4-- 4-- 3-------- 8-- 7--|
A|-------- 3------ 2--------------|-------- 5-- 4-- 4---------- 8--|
E| 2---------------------- 5------| 4---------------------- 8------|
Classical Guitar Tablature http://classicalguitartablature.blogspot.com/
E| 6-- 6--------------------------|--------------------------------|
B| 7-- 7 9------ 9-- 9-- 9--------| 9-- 9 7---- 7-- 7---- 7 4------|
G| 8-- 8 8-- 8-- 6-- 6-- 6-- 6----| 6 6-- 6-- 6 6-- 6---- 6 4-- 4--|
D|-------------- 6-- 6-- 6-- 6----| 6-- 6 6-- 6 5---- 5-- 5 4-- 3--|
A|--------------------------------|--------------------------------|
E| 7------ 7------ 7------ 7---- 7| 6-- 6------ 6 5-------- 4-- 3--|
Classical Guitar Tablature http://classicalguitartablature.blogspot.com/
E|--------------------------------|--------------------------------|
B| 5-- 5---- 5-- 5-- 5---- 4------| 5-- 5-- 4---- 5-- 5---- 4------|
G| 2-- 2---- 4-- 4-- 4---- 4-- 4--| 6-- 6---- 4-- 2-- 2-------- 4--|
D| 2---- 2-- 4-- 4------ 4--------| 6-- 6-------- 2------ 4---- 4--|
A|--------------------------------|-------------- 4-------- 6-- 5--|
E| 2-------- 4---- 5--------------| 6------ 7----------------------|
Classical Guitar Tablature http://classicalguitartablature.blogspot.com/
E|--------------------------------|--------------------------------|
B| 7-- 7---- 7-- 7-- 7------ 7-- 6|-- 6 6-- 6 6 6-- 6-------- 6 7 9|
G| 8-- 8---- 8-- 8-- 8------ 8-- 8|-- 8 8-- 8 8 8-- 8---- 6 8------|
D| 9-------- 9-- 9-- 9------ 9-- 9|-- 9 9-- 9 9 9-- 9--------------|
A|--------------------------------|--------------------------------|
E| 9------ 9------ 9---- 9------ 9|-- 9 9-- 9 9-- 9 9--------------|
Classical Guitar Tablature http://classicalguitartablature.blogspot.com/
E| 6-- 6--------------------------|------ 6-- 4--------------------|
B| 7-- 7 9------ 9-- 9 9----------| 9---- 7-- 6-- 7-- 7-- 7 7------|
G| 6-- 611-- 8-- 8-- 8 8-- 8------| 6---- 7-- 4-- 6-- 6-- 6 6------|
D|------ 9-- 8-- 8-- 8 7----------| 6------------ 8-- 8-- 5 5------|
A|--------------------------------|------ 7-- 5-- 6----------------|
E| 7----10-- 9-- 8------ 7---- 7--| 6---------------------- 5-- 5--|
Classical Guitar Tablature http://classicalguitartablature.blogspot.com/
E|------ 4-- 4-- 1----------------|-------------------------- 3----|
B| 7-- 7 4-- 4-- 2-- 2-- 2---- 2 4| 5-- 5 4-- 2-- 4-- 4-- 4 6-- 911|
G| 4-- 4 4-- 4-- 1-- 1-- 1-- 3----| 6-- 6 1-- 1-- 3-- 3-- 3 5-- 9--|
D| 4-- 4------------ 3-- 3 4------| 5---- 3-- 3-- 1-- 1---- 3-- 8--|
A|--------------------------------| 6------------------------------|
E| 4------ 2------ 1------ 0------|------ 1-------- 3------ 5-- 8--|
Classical Guitar Tablature http://classicalguitartablature.blogspot.com/
E| 8---- 8------------------------|--------------------------------|
B| 9---- 911 9--11--1111--11----11|--11-- 9---- 9-- 9---- 6------ 7|
G|10----101010-- 8-- 8 8-- 8---- 8|-- 8---- 8-- 8-- 8---- 6---- 6 4|
D|-------------- 8------ 8 8---- 8|-- 8-------- 7-------- 6-- 4-- 4|
A|--------------------------------|--------------------------------|
E| 9-- 9-------- 9-------- 9 9 9 8|---- 8------ 7---- 7-- 6-- 5-- 4|
Classical Guitar Tablature http://classicalguitartablature.blogspot.com/
E|--------------------------------|--------------------------------|
B|-- 7------ 7------ 7---- 6------| 7-- 7-- 6---- 7-------- 6------|
G|---- 4------ 6------ 6------ 6--| 8-- 8---- 6-- 4-- 4-- 4---- 6--|
D|-------------- 6------ 6--------| 8------------------ 4----------|
A|--------------------------------|-------------- 6-------- 8------|
E|-------- 6------ 7--------------| 8------ 8----------------------|
Classical Guitar Tablature http://classicalguitartablature.blogspot.com/
E|--------------------------------|--------------------------------|
B| 9-- 9---- 9-- 7-- 7------ 7----| 8-- 8---- 8-- 8-- 8-- 8-- 8 7--|
G| 6-- 6---- 6-- 7---- 7---- 6----| 7-- 7---- 9-- 9-- 9 9---- 7 6--|
D| 8------------ 6---------- 8----| 9-- 9---- 9-- 7-- 7-- 7-- 7 6--|
A| 9------ 8------ 7------ 6------|--------------------------------|
E|--------------------------------|10------ 9------ 8------ 7-- 6--|
Classical Guitar Tablature http://classicalguitartablature.blogspot.com/
E|--------------------------------|---- 2-- 0----------------------|
B| 6-- 6---- 6---- 4-------- 0----|---- 0--------------------------|
G| 5-- 5---- 4---- 2-------- 2----|---- 1--------------------------|
D| 5-- 5---- 3---- 2-------- 1----|--------------------------------|
A|--------------------------------|--------------------------------|
E| 5------ 3------ 2-------- 1----|-- 0----------------------------|
Classical Guitar Tablature http://classicalguitartablature.blogspot.com/
E|--------------------------------|--------------------------------|
B|--------------------------------|--------------------------------|
G|--------------------------------|--------------------------------|
D|--------------------------------|--------------------------------|
A|--------------------------------|--------------------------------|
E|--------------------------------|--------------------------------|

0 ความคิดเห็น:

แสดงความคิดเห็น