To celebrate the anniversary, I am giving you (finally...) : iPhone LickByNeck !!!!!!

Silent Night


Silent night played in the key of A.
ClassicalGuitarTablature http://classicalguitartablature.blogspot.com/
E|------------ 2----------|------------------------|
B| 5------ 5-- 5-- 5------| 2---------- 2----------|
G| 2------ 2------ 2------| 2------ 2--------------|
D|---- 2------------------| 2-- 2---------- 2------|
A| 0-------------------- 4|------------------------|
E|------------------------|------------------------|
ClassicalGuitarTablature http://classicalguitartablature.blogspot.com/
E|------------------------|------------------------|
B| 5------ 5-- 7-- 5------| 2------ 2------ 2------|
G| 6------ 6-- 6-- 6------| 2------ 2------ 0---- 7|
D| 7-- 7---------------- 2|-------- 2------ 2------|
A|---------------------- 4|---------------- 1------|
E| 0----------------------|---------------------- 7|
ClassicalGuitarTablature http://classicalguitartablature.blogspot.com/
ClassicalGuitarTablature http://classicalguitartablature.blogspot.com/
E| 7---- 7------ 7--------|---------------------- 5|
B| 7---- 7------ 8------ 9|---------- 9-- 9------ 5|
G|-------------- 8------ 7|------ 7------ 7------ 6|
D|---------------------- 9|---- 9-------- 6--------|
A|------------ 7-- 8---- 7|------------------------|
E|------------------------|-------------- 6------ 5|
ClassicalGuitarTablature http://classicalguitartablature.blogspot.com/
E|---------- 5------------|------------------------|
B|--------------10------ 5|------------ 5-- 5------|
G|---- 6 6------ 9------ 7|------ 7------ 6--------|
D|-------------- 7------ 5|---- 5-------- 5------ 7|
A|---------------------- 7|---------------------- 5|
E|-------------- 9--------|---------------- 5------|
ClassicalGuitarTablature http://classicalguitartablature.blogspot.com/
E|-------------- 2--------| 5---- 4------ 2--------|
B| 7------------ 5--------| 3------------ 3------ 5|
G| 6---- 6------ 2--------|-------------- 4------ 2|
D|---- 7------------------|-------------- 2------ 2|
A|---------------- 4---- 2|---------------------- 0|
E|------------------------|------------------------|
ClassicalGuitarTablature http://classicalguitartablature.blogspot.com/
E|---------- 2------------|------------------------|
B|------ 5-- 5---------- 2|------------ 2-------- 7|
G|------ 2-------------- 2|------ 2---- 2-------- 6|
D|---- 2-------- 4------ 5|---- 5-------- 5--------|
A|-------------- 2------ 4|---------------------- 5|
E|------------------------|------------------------|
ClassicalGuitarTablature http://classicalguitartablature.blogspot.com/
E|---------------------- 5|-------- 4---- 2--------|
B|------------ 7 7--------| 4------ 5---- 2--------|
G|------ 6-------- 6---- 5|------ 4------ 3--------|
D|---- 7-------- 7--------|---------------------- 4|
A|---------------- 6------|------ 3-------------- 2|
E|---------------------- 4|-------------- 2--------|
ClassicalGuitarTablature http://classicalguitartablature.blogspot.com/
E|------ 2----------------|------------------------|
B| 5---- 5-------- 5------| 2---------- 2----------|
G| 2-------------- 7------| 2------ 2--------------|
D|-------------- 6--------| 2-- 2-------- 2--------|
A|-------------- 7--------|------------------------|
E|---------------------- 5|---------------------- 7|
ClassicalGuitarTablature http://classicalguitartablature.blogspot.com/
E| 7------------ 7--------|10---- 7----------------|
B| 7---- 7------ 8--------| 7---- 7------ 9--------|
G| 7-- 7-------- 8------ 7|------ 7------ 7--------|
D|------------------------|-------------- 9------11|
A|-------------- 8------ 7|------------ 8-------- 9|
E|------------------------|------------------------|
ClassicalGuitarTablature http://classicalguitartablature.blogspot.com/
E|------------------------| 9---------- 9----------|
B|10----------1010--------|10----10----------------|
G| 9---- 9------ 9------11|----11--------11------ 6|
D|----11--------11--------|------------------------|
A|------------------------|---------------------- 6|
E|----------------12----11|------------------------|
ClassicalGuitarTablature http://classicalguitartablature.blogspot.com/
E| 5----------------------|------------------------|
B| 7------ 5------ 2------| 5------ 3------ 0------|
G|-------- 5------ 2------| 3------ 2------ 1---- 2|
D|------ 4------ 2------ 2|------ 0------ 2------ 2|
A|-------------- 4--------|------ 2-------------- 0|
E|------ 4-------------- 2|-------------- 0--------|
ClassicalGuitarTablature http://classicalguitartablature.blogspot.com/
E|------------------------|------------------------|
B|------------ 2-------- 2|------------------------|
G|------ 2---------- 2----|------------------------|
D|---- 2-------- 2--------|------------------------|
A|------------------------|------------------------|
E|------------------------|------------------------|
ClassicalGuitarTablature http://classicalguitartablature.blogspot.com/

0 ความคิดเห็น:

แสดงความคิดเห็น