To celebrate the anniversary, I am giving you (finally...) : iPhone LickByNeck !!!!!!

Smoke Gets In Your Eyes

Smoke Gets In Your Eyes played in the key of G.
http://classicalguitartablature.blogspot.com/
http://classicalguitartablature.blogspot.com/
Smoke Gets In Your Eyes played in the key of G.
ClassicalGuitarTablature http://classicalguitartablature.blogspot.com/
E|-------- 2----------------------|-------- 6---- 8----------------|
B|-- 3------ 3-- 8----------------|-- 6------ 8------ 8------------|
G|---- 4------ 2---- 8------ 8----|---- 7------ 8-------- 9--------|
D|------ 5-------------- 8---- 8--|------ 8------------------------|
A|-------------- 8----------------| 6------------------------------|
E| 3------------------------------|--------------10----------------|
ClassicalGuitarTablature http://classicalguitartablature.blogspot.com/
E|-------- 2----------------------|-------- 6---- 8----------------|
B|-- 3------ 3-- 8----------------|-- 6------ 8------ 8---------- 0|
G|---- 4------ 2---- 8------ 8----|---- 7------ 8-------- 9------ 0|
D|------ 5-------------- 8---- 8--|------ 8---------------------- 0|
A|-------------- 8----------------| 6------------------------------|
E| 3------------------------------|--------------10-------------- 3|
ClassicalGuitarTablature http://classicalguitartablature.blogspot.com/
E|--------------------------------|------------------------------ 3|
B|--------------------------------| 1------ 1-------- 3-- 1------ 3|
G|-- 2 0---- 0------ 2 0----------| 0------ 0------ 4-------- 2-- 4|
D|-------- 0-- 0 4-------- 2---- 2|---- 2--------------------------|
A|-------------------- 2-------- 0|------------ 3-- 5--------------|
E|---------------- 0--------------|---------------------- 2--------|
ClassicalGuitarTablature http://classicalguitartablature.blogspot.com/
E|---- 3 3-------- 7-- 7 7--------| 7-------------- 5 3------------|
B|------ 3---- 5 8---- 8 8--10----| 810 8---- 8---- 5 5---- 3 5----|
G|-- 4-------- 5-- 8-- 8 8-- 9-- 9|-- 9 7---- 7-- 4------ 3--------|
D|------------ 5 7---------- 9----|---- 7-- 7------------ 2--------|
A|------------------------ 9------|------ 7------ 4----------------|
E| 3---------- 5-- 7-- 7---- 9-- 8|---------------------- 2--------|
ClassicalGuitarTablature http://classicalguitartablature.blogspot.com/
E| 2-- 2---------- 0--------------|------------------------ 0------|
B| 3-- 3---------- 3-- 3----------| 3-------- 3---- 5------ 1 3----|
G| 2-- 2---- 2---- 1-------- 0----| 0---- 0-------- 5 7---- 0 2----|
D|---------- 1------------ 2------| 2-- 2------ 2 5---- 5----------|
A| 2---------------------- 2---- 0|-------- 3---- 5---- 7----------|
E|---------- 1-- 0----------------|---------------------- 0-- 2----|
ClassicalGuitarTablature http://classicalguitartablature.blogspot.com/
E|-------- 2----------------------|-------- 6---- 8----------------|
B|-- 3------ 3-- 8----------------|-- 6------ 8------ 8---------- 0|
G|---- 4------ 2---- 8------ 8----|---- 7------ 8-------- 9------ 0|
D|------ 5-------------- 8---- 8--|------ 8---------------------- 0|
A|-------------- 8----------------| 6------------------------------|
E| 3------------------------------|--------------10-------------- 3|
ClassicalGuitarTablature http://classicalguitartablature.blogspot.com/
E|--------------------------------|------------------------------ 3|
B|--------------------------------| 1------ 1-------- 3-- 1------ 3|
G|-- 2 0---- 0------ 2 0----------| 0------ 0------ 4-------- 2-- 4|
D|-------- 0-- 0 4-------- 2------| 2-- 2--------------------------|
A|-------------------- 2-------- 0|------------ 3-- 5--------------|
E|---------------- 0--------------|---------------------- 2--------|
ClassicalGuitarTablature http://classicalguitartablature.blogspot.com/
E|---- 3 3-------- 7-- 7 7--------| 7-------------- 5 3------------|
B|------ 3---- 5 8---- 8 8--10----| 810 8---- 8---- 5 5---- 3 5----|
G|-- 4-------- 5-- 8-- 8 8-- 9-- 9|-- 9 7---- 7-- 4------ 3--------|
D|------------ 5 7---------- 9----|---- 7-- 7------------ 2--------|
A|------------------------ 9------|------ 7------ 4----------------|
E| 3---------- 5-- 7-- 7---- 9-- 8|---------------------- 2--------|
ClassicalGuitarTablature http://classicalguitartablature.blogspot.com/
E| 2-- 2---------- 0--------------|--------------------------------|
B| 3-- 3---------- 3-- 3----------| 3-------- 3-- 5----------------|
G| 2-- 2---- 2---- 1-------- 0----|------ 0------ 5-- 7------------|
D|---------- 1------------ 2------|---- 2------ 2 5---- 5----------|
A| 2---------------------- 2------| 0------ 3---- 5---- 7 5---- 7--|
E|---------- 1-- 0----------------|---------------------- 5---- 4--|
ClassicalGuitarTablature http://classicalguitartablature.blogspot.com/
E|--------------------------------|------ 3------------------------|
B|---------------- 4------ 3------|------ 4------ 3-- 3-- 5-- 4 3--|
G| 0------ 0------ 5------ 3------|---- 3------ 3---- 3-- 3-- 3 3--|
D|---- 0---------- 6-- 6-- 3---- 5|---------- 5---- 3---- 3-- 3----|
A|------------------------ 5---- 6|-------------- 5----------------|
E| 3-------- 4 5-- 6--------------|--------------------------------|
ClassicalGuitarTablature http://classicalguitartablature.blogspot.com/
E|--------------------------------|--------------------------------|
B|-------- 3---------- 1----------|------------------ 3------------|
G|---- 3------------------ 3------| 3------ 3------ 3-- 3---- 3----|
D| 5---------- 5-------------- 1--| 1---- 1-- 1---- 3-- 3---- 3----|
A| 3------------------------------|--------------------------------|
E|---------------- 2--------------| 1---------- 1-- 3------ 4------|
ClassicalGuitarTablature http://classicalguitartablature.blogspot.com/
E|--------------------------------|------ 3------------------------|
B|-------------- 4---- 4 6---- 6--|---- 4 4------ 4---- 3 6 6 4 3--|
G| 3---- 3---------- 1------ 3----|-- 3---------- 3---- 3-- 3 3 3--|
D| 3-- 3-- 3------ 5-------- 6-- 5|---------- 5-------- 3-- 3 3 3--|
A|-------------- 3------ 5--------| 6---------------- 5------------|
E| 6------------------------------|--------------------------------|
ClassicalGuitarTablature http://classicalguitartablature.blogspot.com/
E|--------------------------------|--------------------------------|
B|-------- 3-------------- 0------| 0-------- 0---- 0--------------|
G|---- 3-- 3---------- 5-- 0-- 2--| 0---- 0---- 2 0 0------ 4------|
D| 5---------- 5---- 4------------|---- 0-------- 0---- 0-- 5-- 5--|
A| 3-------------- 5--------------|-------------- 2----------------|
E|------------------------ 0-- 2--| 3------ 2------ 0------ 5------|
ClassicalGuitarTablature http://classicalguitartablature.blogspot.com/
E|--------------------------------|--------------------------------|
B|--------------------------------| 0------------------------------|
G| 2---- 2 2---- 2-- 2---- 2------| 0-- 2 0---- 0---- 2-- 0--------|
D| 4-- 4---- 2------ 2 2-- 2---- 0|---------- 0-- 0 4-------- 2----|
A| 5------ 3---- 2------ 0 0------|---------------------- 2------ 0|
E|------------------------------ 3|---------------- 0--------------|
ClassicalGuitarTablature http://classicalguitartablature.blogspot.com/
E|--------------------------------| 3---- 3 3------ 7---- 7 7------|
B| 1---------- 1---- 3-- 1--------| 3------ 3-- 5-- 8---- 8 810----|
G|------ 0-- 0---- 4-------- 2----| 4-- 4------ 5-- 8---- 8 8 9----|
D|---- 2--------------------------|------------ 5 7---------- 9----|
A|-------- 3------ 5--------------|------------------------ 9------|
E|---------------------- 2--------| 3---------- 5-- 7-- 7---- 9-- 8|
ClassicalGuitarTablature http://classicalguitartablature.blogspot.com/
E| 7-------------- 5-- 3----------| 2-- 2---------- 0--------------|
B| 8--10 8---- 8-- 5-- 5-- 3-- 5--| 3-- 3---------- 3-- 3----------|
G| 9-- 9 7---- 7-- 4------ 3------| 2-- 2---- 2---- 1-------- 0----|
D|------ 7-- 7------------ 2------|---------- 1------------ 2------|
A|------ 7------ 4----------------| 2---------------------- 2------|
E|---------------------- 2--------|---------- 1---- 0--------------|
ClassicalGuitarTablature http://classicalguitartablature.blogspot.com/
E|--------------------------------|-------- 2----------------------|
B| 3------ 3------ 5-- 3----------|-- 3------ 3-- 8----------------|
G|------ 0-------- 5-- 0----------|---- 4------ 2---- 8------ 8----|
D|---- 2---- 2-- 5---- 2-- 0-- 2--|------ 5-------------- 8---- 8--|
A| 0------ 3---- 5----------------|-------------- 8----------------|
E|-------------------- 0-- 1-- 2--| 3------------------------------|
ClassicalGuitarTablature http://classicalguitartablature.blogspot.com/
E|-------- 6---- 8----------------|-------- 2----------------------|
B|-- 6------ 8------ 8------------|-- 3------ 3-- 8----------------|
G|---- 7------ 8-------- 9--------|---- 4------ 2---- 8------ 8----|
D|------ 8------------------------|------ 5-------------- 8---- 8--|
A| 6------------------------------|-------------- 8----------------|
E|--------------10----------------| 3------------------------------|
ClassicalGuitarTablature http://classicalguitartablature.blogspot.com/
E|-------- 6---- 8----------------|--------------------------------|
B|-- 6------ 8------ 8------------| 3------------------------------|
G|---- 7------ 8-------- 9--------| 2------------------------------|
D|------ 8------------------------| 2------------------------------|
A| 6------------------------------| 2------------------------------|
E|--------------10----------------| 3------------------------------|

0 ความคิดเห็น:

แสดงความคิดเห็น