To celebrate the anniversary, I am giving you (finally...) : iPhone LickByNeck !!!!!!

Through The Fire

Classic Chaka Khan's Hit

http://classicalguitartablature.blogspot.com/
http://classicalguitartablature.blogspot.com/
Through The Fire played in the key of G.

E| 2-- 3 2-- 3---- 2-- 3 2--------|--------------------------------|
B| 3-- 3 3-- 3---- 3 3-- 3-- 3-- 3|---- 5---- 5---------------- 3--|
G| 2-- 2 2---- 2-- 2-- 2 2-- 2-- 4|---- 4------ 5---- 5------ 2----|
D|---------------------------- 2 5|---- 5------ 5-- 5---- 5--------|
A|---------------- 2--------------| 3---------- 5------------------|
E| 3------------------------------|------------------------ 2------|

E| 2-- 3 2-- 3---- 2-- 3 2--------|--------------------------------|
B| 3-- 3 3-- 3---- 3-- 3 3-- 3----| 3---- 5---- 5---------- 5------|
G| 2-- 2 2---- 2-- 2-- 2 2-- 2----| 4---- 4---- 5-------- 5--------|
D|---------------------------- 2--| 5---- 5---- 5---- 5------------|
A|---------------- 2------------ 2| 3---------- 5------------------|
E| 3------------------------------|--------------------------------|

E|--------------------------------|---------------------------- 3--|
B| 3---------- 0 1---- 0-------- 0|---------------- 5-- 3-- 3-- 3--|
G| 0---- 0 0 2 0 2-------- 2-- 0--|------ 0------ 4 5-- 5-- 4------|
D|---- 0-------- 2-------- 1------|-- 0------ 5---- 3-- 3-- 3------|
A|------------------------ 2------|-------- 6------ 5--------------|
E| 3-------------- 2--------------| 0---------------------- 3------|

E| 3---- 3------------------------|--------------------------------|
B| 3---- 3---- 0-- 1-- 0-- 3-- 3--| 3------------ 5-- 5-------- 3--|
G| 2-- 2-- 0 2 0-- 0-- 0-- 1-- 1--| 0------------ 5---- 5------ 2--|
D| 2---------------------- 1-- 1--|---- 2-------- 5 5-- 5------ 0--|
A| 3-------------- 2------ 1------| 0------ 2 3-- 5----------------|
E|--------------------------------|------------------------ 2------|

E|--------------------------------|-------------------------- 3-- 3|
B| 3---------- 0-- 1-- 0 0--------| 0------------ 5---- 3-- 3 3-- 3|
G| 0---- 0 0 2 0-- 2------ 2-- 0 0|------ 0---- 4-- 5-- 5-- 4---- 2|
D|---- 0---------- 2------ 1------|---- 0-- 5---- 3---- 3-- 3------|
A|------------------------ 2------|------ 6------ 5-------------- 3|
E| 3-------------- 2--------------| 0---------------------- 3------|

E|-- 3----------------------------|--------------------------------|
B|-- 3-- 3---- 0 1-- 0-- 3-- 3----| 3------------ 5------ 5------ 3|
G|---- 2 0-- 2 0 0-- 0---- 2 1----| 0-- 0-------- 5------ 5------ 3|
D|---------------------- 1-- 1----| 2 0---------- 5---- 5----------|
A|------ 0-------- 2------ 1------| 0-- 0-- 3 3-- 5-------------- 6|
E|--------------------------------|---- 0---- 0--------------------|

E|------------ 3------------------|--------------------------------|
B|-- 3 3-- 4 6 4-- 8------ 6-- 4--| 3---- 3-- 0------ 3---- 3------|
G|-- 3 3-- 3 3-- 3 8------ 5-- 5--| 2---- 2-- 0------ 2---- 2------|
D| 5 5-- 5 5 5---- 8------ 3-- 4--| 2---- 2-- 0------ 2---- 2------|
A|---------------- 8--------------|--------------------------------|
E|------------------------ 5-- 4--| 3------------ 3 3---- 3--------|

E|-------------- 3----------------|--------------------------------|
B| 3 3 3 3 4 6-- 4 8------ 6-- 4--| 3------ 3-------- 3-- 5-- 7----|
G| 3 3 3 3 3 3-- 3 8------ 7-- 6--| 5---------- 5 2-- 2-- 5---- 5--|
D| 5 5 5 5 5 5---- 8------ 6-- 6--| 5-- 5------------ 2-- 5---- 7--|
A| 6-------------- 8---------- 6--| 5-------------------- 5---- 6--|
E|------------------------ 6------|-------- 5---- 2----------------|

E|------------------ 7-- 5-- 3----| 2---- 2-- 2------------ 8-- 8--|
B| 8---- 8-- 5 7-- 8 8-- 5-- 5----| 3---- 3-- 3------------ 7-- 7--|
G| 7---- 7-- 7 7-- 5 5-- 5-- 5----| 2-- 2---- 2-------- 7-- 7-- 7--|
D| 5-- 5-- 5 6 6-- 5--------------|------ 0------------ 7----------|
A| 7------------------------------|------------------------ 9-- 9--|
E|---------- 6---- 5---- 3--------| 2------ 0------10--------------|

E| 8---- 7-------- 7-- 7-- 5-- 3--| 5------ 5----------------------|
B| 8---- 8---- 8-- 8-- 8-- 5-- 5--| 5---- 5------ 4------ 5-- 7----|
G| 9---- 7-- 7---- 9-- 7-- 5-- 5--| 5-- 5-------------- 2 5---- 6--|
D|--------------------------------|-------------- 4-- 4-- 7-- 7----|
A|10------------------------------|-------- 4 3-- 2------ 6--------|
E|------ 7-------- 8-- 7-- 5-- 3--| 2------------------------------|

E|------------------ 7 5-- 3---- 2|---- 2---- 2------------ 8-- 8--|
B| 8---- 8---- 5 7 8-- 5-- 5---- 3|---- 3---- 3------------ 7-- 7--|
G| 7---- 7---- 7 7 5---- 5-- 5-- 2|------ 2-- 2------ 7---- 7-- 7--|
D| 5---- 5---- 6------------------|------------------ 7------------|
A| 7-- 5 7------------------------|---------------------- 9--------|
E|-- 7------ 0 6-- 5---- 3------ 2|-------- 0------10--------------|

E| 8---- 7-------- 7-- 7----------|---------------- 7--------------|
B| 8 8-- 8-------- 8-- 8--10-- 8--|10-------------- 7--10-- 8 7----|
G| 9---- 7------ 9---- 9-- 7-- 7--| 9---- 9---- 9 8---- 8--10 9----|
D|------------------------ 7-- 7--|10--10-- 7---------- 7--10 9----|
A|10-------------------- 7------ 9|--------------------------------|
E|------ 7------ 8----------------|-------- 8---- 7--------10 9----|

E|-------------- 7---- 5----------| 2-- 3 2-- 3-- 2-- 3-- 2--------|
B| 8---- 8------ 5---- 5-- 8-- 7--| 3-- 3 3-- 3-- 3-- 3-- 3 3---- 3|
G| 9---- 9---- 7-- 5-- 5-- 5-- 5--| 2-- 2 2---- 2 2-- 2-- 2 2---- 4|
D| 9-- 9---- 7------------ 5-- 5--|------------------------------ 5|
A|------------------------ 5------|-------------- 2-------------- 3|
E| 8------ 7------ 5--------------| 3------------------------------|

E|--------------------------------|--------------------------------|
B|---- 5------ 5------------------|--------------------------------|
G|---- 4------ 5------------------|--------------------------------|
D|---- 5------ 5------------------|--------------------------------|
A|-------- 3-- 5------------------|--------------------------------|

0 ความคิดเห็น:

แสดงความคิดเห็น