To celebrate the anniversary, I am giving you (finally...) : iPhone LickByNeck !!!!!!

What Child Is This


What Child Is This played in the key of Em.
ClassicalGuitarTablature http://classicalguitartablature.blogspot.com/
E| 3----------------------|------------------------|
B| 5---- 7------ 5------ 4|-------------- 4------ 5|
G|---- 4-- 4---- 2------ 2|------------ 6 2------ 4|
D|------------ 5------ 2--|---- 4------ 4------ 4--|
A| 5------ 4------ 3---- 2|------------------------|
E|------------------------|------ 5------ 4------ 3|
ClassicalGuitarTablature http://classicalguitartablature.blogspot.com/
E|------------------------|---------------------- 3|
B|------------------------|-------------- 5------ 0|
G|------------ 2------ 2 0|------------ 4 6------ 0|
D|---- 5------ 4------ 1--|---- 0------ 5------ 5--|
A|------------------------|------ 5------ 6--------|
E|-------- 2------ 1---- 0|---------------------- 0|
ClassicalGuitarTablature http://classicalguitartablature.blogspot.com/
ClassicalGuitarTablature http://classicalguitartablature.blogspot.com/
E|-------------- 5--------| 7---------- 8-- 7------|
B|---------------- 4------| 5---------- 7-- 8----10|
G|------------ 2-- 2------| 4-- 4------ 5-- 9---- 7|
D|---- 0------ 1------ 4--|-------------------- 9--|
A|------------------------|------------------------|
E|-------- 1------ 2------| 3------ 5------ 7------|
ClassicalGuitarTablature http://classicalguitartablature.blogspot.com/
E|------------------------|-------------- 2--------|
B|-------------- 7------ 3|------------ 5 3------ 8|
G|-------------- 5------ 2|------------ 4 2------ 9|
D|---- 7------ 7------ 5--|---- 4------ 5------ 4--|
A|------------------------|------------------------|
E| 8------10---- 0--------| 2------ 3---- 5------ 7|
ClassicalGuitarTablature http://classicalguitartablature.blogspot.com/
E|------------------------| 0----------------------|
B|------------------------| 1---------- 4 5------ 7|
G|---------------- 9------| 3---------- 2 3------ 4|
D|---- 9------ 9------ 9--|---- 2------ 4------ 5--|
A|------------------------|------------------------|
E|-------- 8------10------| 0---- 2------ 3------ 5|
ClassicalGuitarTablature http://classicalguitartablature.blogspot.com/
E|------------------------|---------------- 0---- 3|
B|-------------------- 4--| 0-------------- 5------|
G|-------------------- 2--| 0---------- 0-- 5------|
D|---- 4------ 4------ 4--|---- 2------ 2------ 7--|
A|-------------- 3--------| 4------ 6--------------|
E|-------- 7--------------|---------------- 0------|
ClassicalGuitarTablature http://classicalguitartablature.blogspot.com/
E|-------------- 5------ 7|------------ 8-- 7------|
B| 3------------ 7------ 8|------------10-- 8------|
G| 2---------- 0 5------ 9|---- 9------ 9-- 9------|
D|---- 1------ 0------ 7--|-------------------- 9--|
A|-------------- 6--------|------------------------|
E| 1------ 0------------10|-------- 8------ 7------|
ClassicalGuitarTablature http://classicalguitartablature.blogspot.com/
E| 5-------------- 2------|------------ 0-------- 3|
B| 7-------------- 3------| 3---------- 1 7------ 5|
G| 7---------- 2-- 2------| 2---------- 0-- 5------|
D|---- 7------ 2------ 4--|---- 1-------------- 7--|
A|------------------------|---------------- 6---- 5|
E| 5------ 3------ 2------| 1------ 0--------------|
ClassicalGuitarTablature http://classicalguitartablature.blogspot.com/
E|------------------------|------------------------|
B|------ 7------ 5------ 4|-------------- 4------ 5|
G|---- 4 4------ 2------ 2|------------ 6 2------ 4|
D|------------ 5------ 2--|---- 4------ 4------ 4--|
A|------ 4------ 3------ 2|------------------------|
E|------------------------|------ 5------ 4------ 3|
ClassicalGuitarTablature http://classicalguitartablature.blogspot.com/
E|------------------------|----------------------10|
B|------------------------|---------------------- 8|
G|------------ 2------ 2--| 0---------- 0------ 2--|
D|---- 5------ 4------ 1--|---- 0------ 1------ 2--|
A|------------------------|------------------------|
E|-------- 2------ 1------| 0------ 1---- 2--------|
ClassicalGuitarTablature http://classicalguitartablature.blogspot.com/
E|--------------10------10|------ 9------ 7--------|
B|------------ 7 8------ 8|------ 8------ 5------10|
G| 7-- 7------ 7 8------ 7|------ 6------ 6---- 6 7|
D|-------------------- 8--|---- 9------ 8----------|
A|10---- 9------ 8------ 7|------ 6------ 4--------|
E|------------------------|----------------------10|
ClassicalGuitarTablature http://classicalguitartablature.blogspot.com/
E|------------------------|---------------------- 3|
B|-------------- 7--------|------ 5-------- 7---- 5|
G|------------ 9-- 7---- 7|------ 4-------- 5---- 4|
D|---- 7------ 7------ 5--|---- 5------ 4------ 4--|
A|------------------------|------------------------|
E|------ 9-------- 7---- 6|-------- 5------ 4------|
ClassicalGuitarTablature http://classicalguitartablature.blogspot.com/
E|-------------- 0------ 0|---------------------- 2|
B|-------------- 3------ 1|------ 4------ 5------ 4|
G|------------ 2 2--------| 3---- 5------ 3------ 2|
D|---- 2------ 1------ 0--|---- 2 4------------ 5--|
A|------------------------|------ 6---- 5 3------ 2|
E| 3------ 2------ 1------| 0----------------------|
ClassicalGuitarTablature http://classicalguitartablature.blogspot.com/
E|------------------------|------------------------|
B|-------------- 4--------| 0-------------- 1------|
G|------------ 2 2--------| 0---------- 2-- 2------|
D|---- 4-------------- 4--|---- 2------ 1------ 2--|
A|------------------------|------------------------|
E|------ 5-------- 2------| 3------ 2------ 0------|
ClassicalGuitarTablature http://classicalguitartablature.blogspot.com/
E|10------------10--------|10---- 9------ 7------ 5|
B|13----------12-- 7---- 8|------ 7------ 5------ 3|
G|12--12------12-- 7------| 9-- 9 6---- 6---- 6-- 2|
D|-------------------- 7--|------------------------|
A|------------------------|------------------------|
E|11------10------ 8------| 7---- 5------ 3------ 2|
ClassicalGuitarTablature http://classicalguitartablature.blogspot.com/
E|------------------------|---------------- 2---- 3|
B|-------------- 7--------| 3------ 5------ 3---- 5|
G|------------ 2 5--------| 2------ 2------ 2------|
D|---- 4------ 4------ 7--|---- 4-- 2-- 2------ 4--|
A|-------------- 6--------| 5------ 4------ 2------|
E|------ 0----------------|------------------------|
ClassicalGuitarTablature http://classicalguitartablature.blogspot.com/
E|------------------------|------------------------|
B|------------ 7 5--------| 4---- 2------ 4------ 5|
G| 3---------- 4-- 4------| 4---- 0------ 2------ 4|
D|---- 5------ 5------ 5--|---- 7------ 2------ 4 5|
A| 3------ 4------ 5------| 6----------------------|
E|------------------------|-------- 0---- 2------ 3|
ClassicalGuitarTablature http://classicalguitartablature.blogspot.com/
E|------------------------|---------------------- 3|
B|------------------------|---------------------- 5|
G|-------------------- 7--|---- 7 9------ 9--------|
D|---- 5------ 5----------|---- 5------ 7------ 9--|
A|-------- 0--------------|---------------------- 5|
E|---------------- 6------| 7---- 8------ 9--------|
ClassicalGuitarTablature http://classicalguitartablature.blogspot.com/
E|------------------------|------------------------|
B|------ 7------ 5------ 4|-------------- 4------ 5|
G|---- 4 4------ 2------ 2|------------ 6 2------ 4|
D|------------ 5------ 2--|---- 4------ 4------ 4--|
A|------ 4------ 3------ 2|------------------------|
E|------------------------|------ 5------ 4------ 3|
ClassicalGuitarTablature http://classicalguitartablature.blogspot.com/
E|------------------------|---------------------- 3|
B|------------------------|-------------- 5---- 7--|
G|------------ 2------ 2 0|------------ 5 5---- 4--|
D|---- 5------ 4------ 1--|---- 0------ 7 3---- 6--|
A|------------------------|------ 6-------- 5-- 4--|
E|-------- 2------ 1---- 0|------------------------|
ClassicalGuitarTablature http://classicalguitartablature.blogspot.com/
E|------------------------|------------------------|
B| 5---------- 7-- 5------| 4---- 2------ 4------ 5|
G| 3---------- 4-- 4------| 4---- 0------ 2------ 4|
D|---- 5------ 5------ 5--|---- 7------ 2------ 4--|
A| 3------ 4------ 5------| 6----------------------|
E|------------------------|-------- 0---- 2------ 3|
ClassicalGuitarTablature http://classicalguitartablature.blogspot.com/
E|------------------------|------------------------|
B|------------------------|-- 0--------------------|
G|-------------- 2--------| 0----------------------|
D|---- 5-------- 4------ 4|------------------------|
A|------------------------|------------------------|
E|-------------- 2------ 0|------------------------|
ClassicalGuitarTablature http://classicalguitartablature.blogspot.com/
E|------------------------|------------------------|
B|------------------------|------------------------|
G|------------------------|------------------------|
D|------------------------|------------------------|
A|------------------------|------------------------|
E|------------------------|------------------------|
ClassicalGuitarTablature http://classicalguitartablature.blogspot.com/

0 ความคิดเห็น:

แสดงความคิดเห็น