To celebrate the anniversary, I am giving you (finally...) : iPhone LickByNeck !!!!!!

What A Wonderful World

Classic ballad chord melody guitar arrangement played in the key of D.

What A Wonderful World played in the key of D.
Classical Guitar Tablature http://classicalguitartablature.blogspot.com/
E|--------------------------------|--------------------------------|
B|-------- 3-------------- 3------|------ 3------------------------|
G|---- 2---- 2-------- 3---- 3----|---- 4---- 4-------- 2 2---- 2--|
D|-- 4-------- 4---- 2-------- 2--|-- 4-------- 4---- 2-- 2---- 2--|
A| 5------------------------------|-------------- 0----------------|
E|---------------- 2------------ 3| 3------------------------------|
Classical Guitar Tablature http://classicalguitartablature.blogspot.com/
E|---------------- 5------ 5------|-------- 7 7 7-- 5------ 5------|
B| 3------ 3---------- 2------ 2--|-------- 3 3 3-- 2-- 2------ 2--|
G| 2-- 2------ 2---- 2------ 2----|-- 4---- 4 4 4-- 2 2------ 2----|
D|-- 4------ 4--------------------|--------------------------------|
A| 5------------------------------|--------------------------------|
E|---------------- 2------------ 3| 3-------------- 2--------------|
Classical Guitar Tablature http://classicalguitartablature.blogspot.com/
Classical Guitar Tablature http://classicalguitartablature.blogspot.com/
E|---- 3 3-- 3-- 2----------------|--------------------------------|
B|---- 0 0-- 0 0 2------ 2------ 5|------ 5------ 3-------- 3---- 3|
G|-- 0---------------- 2------ 2--| 4-- 4 3---- 3 2---- 2------ 3 2|
D|------------------ 4------ 4----|-- 5------ 2------ 4------ 4-- 3|
A|-------------- 5----------------| 4-------------- 2--------------|
E| 0------------------------------|------ 2------------------------|
Classical Guitar Tablature http://classicalguitartablature.blogspot.com/
E|--------------------------------|--------------------------------|
B|---- 3---- 3-- 3----------------|---- 3---- 3-- 2---- 3---- 5----|
G|---- 2---- 2-- 2---- 2---- 2----|---- 0-- 2 2-- 4---- 4---- 4----|
D|------------ 3 3---- 3---- 3----|---- 0-- 2 2---- 4-- 4---- 5----|
A| 1---- 0 0----------------------|--------------------------------|
E|---------------- 3------ 1-- 1--| 0------ 2-- 2-- 3---- 4-- 5----|
Classical Guitar Tablature http://classicalguitartablature.blogspot.com/
E| 2-------- 2--------------------|--------------------------------|
B| 2---------- 2---------- 3------|--------------------------------|
G| 2-- 2------ 2------ 3---- 3----|---- 4------ 4------ 2-- 2-- 2--|
D|------------------ 2-------- 2--|-- 4------ 4-------- 2-- 2-- 2--|
A| 5------------------------------|---------------------------- 4--|
E|---------------- 2--------------| 3------ 4------ 5--------------|
Classical Guitar Tablature http://classicalguitartablature.blogspot.com/
E|---------------- 5-- 5----------| 7-- 7---- 7 7------------------|
B| 3-- 3 3-------- 2-- 2----------| 3-- 3---- 5 8--10--10-------- 8|
G| 2-- 2 0---- 1------ 2---- 6 5--| 4-- 4---- 6 7-- 9-- 9---- 9-- 7|
D| 4---- 0---- 0------------ 4 4--|---------------- 7-- 7------ 7 5|
A| 5------------------------------|--------------------------------|
E|-------- 0-- 1-- 2------ 5-- 4--| 3------ 5-- 7-- 9---- 8--------|
Classical Guitar Tablature http://classicalguitartablature.blogspot.com/
E|--------------------------------|--------------------------------|
B|---- 8---- 8---- 7-- 7----------| 5-- 5-- 5-- 5-- 3-- 5-- 7------|
G|---- 7---- 7---- 6-- 6---- 4----| 4-- 4-- 3-- 3-- 2-- 3-- 4-- 4--|
D|---- 5------ 5-- 7-- 7---- 4----| 5-- 3-- 2-- 5---- 4 5 7-- 7----|
A|--------------------------------| 4---------- 3-- 2-- 4-- 5------|
E| 7------ 6------ 5------ 4-- 4--|---- 3-- 2----------------------|
Classical Guitar Tablature http://classicalguitartablature.blogspot.com/
E|--------------------------------|--------------------------------|
B|--------------------------------|---- 3 3---- 3 2---- 3---- 5-- 3|
G| 7-- 7-- 7-- 7---- 7------ 7----|---- 4 3---- 2 1---- 0---- 6-- 2|
D| 7------ 7-- 7------ 7------ 7--|-- 4-- 2---- 2 0---- 0---- 5-- 4|
A| 8-- 7--------------------------|-------------------------- 6-- 5|
E|--------10---- 8 6------ 5------| 4---- 3 3-- 2-- 1-- 0----------|
Classical Guitar Tablature http://classicalguitartablature.blogspot.com/
E|--------------------------------|--------------------------------|
B|---- 3------ 3---------- 3------|------ 2------------ 3---- 3-- 5|
G|---------- 2-------- 3---- 3----|------ 2------------ 2---- 2-- 0|
D|------ 4---------- 2-------- 2--|---- 2---- 2-------- 1---- 1----|
A|--------------------------------|--------------------------------|
E|-------------- 3-------------- 2|------------ 2 1-------- 1-- 1 0|
Classical Guitar Tablature http://classicalguitartablature.blogspot.com/
E|--------------------------------| 3-- 2---- 2 0 2---- 2----------|
B|---- 5---- 5-- 5---- 5----------| 3-- 3---- 3-- 2---- 2---- 3----|
G|---- 0---- 2-- 4---- 4------ 4--| 3-- 4---- 4-- 2---- 2---- 2----|
D|---- 0---- 2-- 5---------- 5----|-------------------------- 1----|
A|--------------------------------| 5------------------------------|
E|------ 2 2-- 2-- 3------ 5------|------ 4-- 3-- 2-------- 1-- 1--|
Classical Guitar Tablature http://classicalguitartablature.blogspot.com/
E|--------------------------------|------ 2-------------- 5--------|
B| 5-- 5---- 5-- 5---- 5------ 4--| 8-- 7-- 5-- 5 7------ 7---- 7--|
G| 7-- 7---- 4-- 2---- 2------ 5--| 7-- 6-- 2-- 2 6---- 6 7-- 7----|
D| 5-- 5------ 5 2---- 2------ 6--| 8-- 7------ 4---- 5------------|
A| 7---- 5-------- 4------ 2------| 6-- 5-- 4-- 2------------------|
E|---------------------------- 6--|-------------- 6------ 5--------|
Classical Guitar Tablature http://classicalguitartablature.blogspot.com/
E| 7---- 7------------------------|-------------- 5------ 5--------|
B| 7-- 7--------10------10---- 7--|12----12---- 7 5------ 5---- 712|
G| 7----------11 9---- 9 9---- 7--|11--1111---- 7 6---- 6------ 711|
D|------------ 9---- 7-------- 7--| 9 9-------- 7---- 7-------- 712|
A|--------------------------------|------------ 9 7------------ 912|
E| 7----------10 9------------ 7--|10------------------------------|
Classical Guitar Tablature http://classicalguitartablature.blogspot.com/
E|------ 7------------------------|--------------------------------|
B|------ 7------10----------------| 8------ 7---- 5----------------|
G|----11-- 7-- 7 8---- 8------ 5--| 7-- 7-- 5-- 5------ 4-- 2-- 2--|
D|--12------ 7------10------ 7----|-- 9-- 7-- 7------ 5---- 2-- 2--|
A|-------- 9---- 9-------- 6------| 7------ 6------ 5--------------|
E|--------------------------------|------------------------ 5------|
Classical Guitar Tablature http://classicalguitartablature.blogspot.com/
E|---------------- 5-- 5----------| 7-- 7---- 7 7------------------|
B| 3-- 3 3-------- 2-- 2----------| 3-- 3---- 5 8--10--10-------- 8|
G| 2-- 2 0---- 1------ 2---- 6 5--| 4-- 4---- 6 7-- 9-- 9---- 9-- 7|
D| 4---- 0---- 0------------ 4 4--|---------------- 7-- 7------ 7 5|
A| 5------------------------------|--------------------------------|
E|-------- 0-- 1-- 2------ 5-- 4--| 3------ 5-- 7-- 9---- 8--------|
Classical Guitar Tablature http://classicalguitartablature.blogspot.com/
E|--------------------------------|--------------------------------|
B|---- 8---- 8---- 7-- 7----------| 5-- 5-- 5-- 5-- 3-- 5-- 7------|
G|---- 7---- 7---- 6-- 6---- 4----| 4-- 4-- 3-- 3-- 2-- 3-- 4-- 4--|
D|---- 5------ 5-- 7-- 7---- 4----| 5-- 3-- 2-- 5---- 4 5 7-- 7----|
A|--------------------------------| 4---------- 3-- 2-- 4-- 5------|
E| 7------ 6------ 5------ 4-- 4--|---- 3-- 2----------------------|
Classical Guitar Tablature http://classicalguitartablature.blogspot.com/
E|--------------------------------|--------------------------------|
B|--------------------------------|---- 3 3---- 3 2---- 3---- 5-- 3|
G| 7-- 7-- 7-- 7---- 7------ 7----|---- 4 3---- 2 1---- 0---- 6-- 2|
D| 7------ 7-- 7------ 7------ 7--|-- 4-- 2---- 2 0---- 0---- 5-- 4|
A| 8-- 7--------------------------|-------------------------- 6-- 5|
E|--------10---- 8 6------ 5------| 4---- 3 3-- 2-- 1-- 0----------|
Classical Guitar Tablature http://classicalguitartablature.blogspot.com/
E|--------------------------------|--------------------------------|
B|---- 3---- 3-- 2---- 5------ 5--|---- 1------ 3------------ 3 3--|
G|---- 2---- 2-------- 2------ 5--|---- 2------ 3---- 2------ 2 2--|
D|------ 4---- 4---- 4------ 4----|-- 2------ 2-------- 1-- 1-- 1--|
A|-------------- 3----------------|-------- 3------ 2---- 0--------|
E|------------------------ 5---- 2|------ 2---------------- 1------|
Classical Guitar Tablature http://classicalguitartablature.blogspot.com/
E| 2------------------------------|--------------------------------|
B| 0---- 3-- 5---- 3-------- 3----|---- 3-------------------- 5----|
G| 0---- 2-- 4---- 4------ 4------|---- 4-- 7-- 7 6---- 7---- 6----|
D|------ 2-- 5---- 4-- 4------ 4--|---- 5-- 5-- 7 7---- 6---- 5----|
A|--------------------------------|-------------- 8---- 7---- 6-- 5|
E| 0---- 2-- 3---- 4--------------| 5------ 6-- 7------------------|
Classical Guitar Tablature http://classicalguitartablature.blogspot.com/
E|--------------------------------|--------------------------------|
B| 3------------------------------|--------------------------------|
G| 4------------------------------|--------------------------------|
D| 4------------------------------|--------------------------------|
A|--------------------------------|--------------------------------|
E|--------------------------------|--------------------------------|

0 ความคิดเห็น:

แสดงความคิดเห็น