To celebrate the anniversary, I am giving you (finally...) : iPhone LickByNeck !!!!!!

White Christmas


White Christmas played in the key of C
ClassicalGuitarTablature http://classicalguitartablature.blogspot.com/
E|--------------------------------|--------------------------------|
B| 5-------- 5------------ 5------| 6-- 5------ 4------ 5-------- 6|
G| 4------ 4-------------- 5------| 7-- 7------ 6------ 6-------- 5|
D| 5-- 5------ 5------ 7----------| 6-- 6------ 5-------- 5------ 3|
A| 3------------ 8----------------| 7---------------------------- 5|
E|--------------------------------|------------ 5------------------|
ClassicalGuitarTablature http://classicalguitartablature.blogspot.com/
E|--------------------------------|---- 3--------------------------|
B|------ 6------------ 6------ 7--|---- 3------------------ 8------|
G|------ 5------------ 5------ 5--|---- 4-- 4-------------- 7------|
D|------------ 3------ 3------ 4--|-------------------- 5----------|
A|--------------------------------|--------------------------------|
E|---------------- 5---------- 4--|---- 3------ 5-- 7--------------|
ClassicalGuitarTablature http://classicalguitartablature.blogspot.com/
ClassicalGuitarTablature http://classicalguitartablature.blogspot.com/
E|-------------- 7---- 8------10--|--------------------------------|
B|----10--------10----10------10--|------13------12------10---- 8--|
G|---- 9-------- 9---- 9------10--|------10------12------10---- 9--|
D|----10--------------------------|------10------12------ 9---- 9--|
A| 8-------------- 9----------10--|---- 012------14----------------|
E|--------------------------------|---------------------- 9---- 8--|
ClassicalGuitarTablature http://classicalguitartablature.blogspot.com/
E|------------------------------ 3|-------- 3----------------------|
B|------ 8---------------- 8---- 4|-------- 4-- 1------ 3----------|
G|------ 9------ 7-------- 7------| 5-- 5-- 5-- 2------ 0----------|
D|---- 9-------------- 6----------|------------ 3------ 3-- 3------|
A|--------------------------------|-------------------- 2----------|
E|---------------- 6--------------| 4---------- 3------------------|
ClassicalGuitarTablature http://classicalguitartablature.blogspot.com/
E|--------------------------------|--------------------------------|
B| 5-------- 5-- 5----------------|----10------------ 8------------|
G| 4------ 4---- 5------ 5---- 6 9|------------------ 9---------- 5|
D| 5-- 5-------- 5---- 5-------- 8|------------------ 8---------- 7|
A| 3-------------- 7---------- 810|-------------- 9-------------- 8|
E|--------------------------------|--------------------------------|
ClassicalGuitarTablature http://classicalguitartablature.blogspot.com/
E|--------------------------------|---- 3--------------------------|
B|--------------------------------|---------------- 6--------------|
G|---- 5---- 5-- 5---- 5---- 5-- 5|---------- 5---- 5--------------|
D|---- 7---- 5-- 7---- 7---- 7-- 6|-------- 6-- 0-- 3--------------|
A|------ 7---- 7 5----------------|--------------------------------|
E|---------------------- 8---- 8 6|---------------- 5------ 4------|
ClassicalGuitarTablature http://classicalguitartablature.blogspot.com/
E|---------------- 0-- 0------ 1--|------ 0------------------------|
B| 5------ 5------ 1-- 1------ 1--|------ 0-------- 3-- 1------ 3--|
G| 4------ 4------ 2-- 2------ 0--|---- 0---------- 0---------- 3--|
D| 2------ 2----------------------|-------------- 0------------ 5--|
A|--------------------------------|---------------------------- 6--|
E| 3-------------- 2---------- 1--|-------------- 0----------------|
ClassicalGuitarTablature http://classicalguitartablature.blogspot.com/
E|--------------------------------|--------------------------------|
B|-------- 3------------ 3---- 1--|------ 1------ 1---- 3-------- 5|
G|------ 3-------------- 5---- 2--|------ 2------ 2---- 0-------- 4|
D|---- 5------------------ 3-- 3--|---- 3-------- 3---- 0-------- 5|
A|--------------------------------|-------------------- 2-------- 3|
E|-------------- 4 4---------- 3--|------------ 3 3----------------|
ClassicalGuitarTablature http://classicalguitartablature.blogspot.com/
E|--------------------------------|--------------------------------|
B|-------------- 5---- 5------ 6--|---- 5------ 4------ 5---- 4-- 6|
G|------ 4------ 5---- 5------ 7--|---- 7------ 6------ 6-------- 5|
D|---- 5-------- 7---- 7------ 6--|---- 6------ 5-------- 5------ 3|
A|-------------- 8------------ 7--|------------------------------ 5|
E|--------------------------------|------------ 5------------------|
ClassicalGuitarTablature http://classicalguitartablature.blogspot.com/
E|--------------------------------|---- 3--------------------------|
B|------ 6------------ 6------ 7--|---- 3-------------- 8----------|
G|------ 5------------ 5------ 5--|-------- 4---------- 7----------|
D|---- 3------ 3------ 3------ 4--|-------------------- 5----------|
A|--------------------------------|------------------------------ 8|
E|-------------- 5------------ 4--|---- 3-------- 5 7--------------|
ClassicalGuitarTablature http://classicalguitartablature.blogspot.com/
E|-------------- 7---- 8------10--|----10--------------------------|
B|----10--------10----10------10--|----10--13----12------10------ 8|
G|---- 9-------- 9---- 9------10--|----10----10--12------10------ 9|
D|----10--------------------------|----------10--12-------------- 9|
A|---------------- 9----------10--|------12----1214----------------|
E|--------------------------------|---------------------- 9------ 8|
ClassicalGuitarTablature http://classicalguitartablature.blogspot.com/
E|------------------------------ 3|---- 3--------------------------|
B|-------- 8---------- 8-------- 4|---- 4------ 1-------- 0------ 5|
G|-------- 9---------- 7-------- 5|---- 5------ 2-------- 0------ 5|
D|-------- 9---------- 6----------|------------ 3------ 3 3------ 5|
A|--------------------------------|------------------------ 2------|
E|------------ 8-- 6------------ 4|------------ 3------------------|
ClassicalGuitarTablature http://classicalguitartablature.blogspot.com/
E|--------------------------------|---- 5--------------------------|
B|------ 5------ 5---- 5------ 5--|---- 5-------------- 8 8--------|
G|------ 5------ 5---- 5------ 5--|------ 5------------ 7 6------ 8|
D|------ 5------ 5---- 5------ 5--|---------------- 6-- 6 8--------|
A|--------------------------------|---------------------- 6------11|
E| 8---------- 8-- 6---------- 5--|------------ 5 6----------------|
ClassicalGuitarTablature http://classicalguitartablature.blogspot.com/
E| 8---- 8------------ 8-- 8------|---- 8--------------------------|
B| 8---- 8------------ 9-- 9------|----10--------------------------|
G|---- 8--------------10--10------|---- 9------ 5-------- 7--------|
D|--------------------------------|------------ 6------ 6 6--------|
A|---------------------------- 0 9|------------ 8------------------|
E|---------------- 9--------------|--------------------------------|
ClassicalGuitarTablature http://classicalguitartablature.blogspot.com/
E|---------------------------- 5--|---- 5--------------------------|
B| 5------ 5------ 5-- 5------ 5--|---- 5 6------ 3----------------|
G| 7------ 7------ 6-- 6------ 5--|---- 5 7------ 3------ 4---- 5--|
D| 6------ 6------ 5-- 5----------|------ 7------ 5------ 3---- 2--|
A| 7------------------ 6------ 8--|-------------- 6------ 4---- 3--|
E|-------- 6------ 5--------------|-------- 6----------------------|
ClassicalGuitarTablature http://classicalguitartablature.blogspot.com/
E|--------------------------------|--------------------------------|
B|--------------------------------|--------------------------------|
G|--------------------------------|--------------------------------|
D|--------------------------------|--------------------------------|
A|--------------------------------|--------------------------------|
E|--------------------------------|--------------------------------|
ClassicalGuitarTablature http://classicalguitartablature.blogspot.com/

0 ความคิดเห็น:

แสดงความคิดเห็น