To celebrate the anniversary, I am giving you (finally...) : iPhone LickByNeck !!!!!!
0 com

You Needed Me

A beautiful Anne Murray's ballad fingerstyle solo guitar arrangement played in the key of C.

You Needed Me played in the key of C.
http://classicalguitartablature.blogspot.com/
E| 8 3-- 3------------------------|--------------------------------|
B| 8 6-- 6-- 5-- 5-- 3-- 3-- 1-- 5|-- 3---- 3---------------- 5----|
G| 9 5---- 5 5-- 7-- 4-- 2-- 2-- 5|-- 1---- 2---- 0-- 2-------- 2--|
D|-- 3---- 3 6-- 6-- 3-- 2-- 2-- 4|-- 3---- 4---- 2-- 0-------- 2--|
A|10------------------ 5----------|-- 2---- 3-- 5------------------|
E|-- 4---- 5-- 6-- 7------ 0 3-- 5|---------------- 0-- 1-- 2-- 3--|
http://classicalguitartablature.blogspot.com/
E|--------------------------------|---------------------------- 3--|
B| 5 3-- 3------------------ 3----| 3 1-- 1-------------------- 0--|
G| 5 0-- 2---- 3-- 5 6-- 2-- 2-- 0|------ 2---------- 0-- 0---- 0--|
D| 3 3---- 3-- 5-- 3 5-- 0-- 2-- 2|---------- 3------ 0---- 0------|
A|-- 2---- 3-- 4-- 5--------------|------ 0------ 1------ 2--------|
E| 5------------------ 0 1-- 2-- 3|--------------------------------|
http://classicalguitartablature.blogspot.com/
http://classicalguitartablature.blogspot.com/
E|---------------------------- 3 1|-------------------------- 1----|
B| 8-------------------------- 2--| 1------------------------ 1----|
G| 5-- 5------ 7---------- 0-- 3--| 2-- 2------ 0---- 0-- 0-- 0----|
D| 5-- 5------ 5---- 5---- 3------|-- 3-------- 2---- 3---- 3------|
A|--------------------------------|---------------- 5---- 3--------|
E| 8------ 7------ 5------ 3-- 2--| 1------ 0----------------------|
http://classicalguitartablature.blogspot.com/
E| 1------------------------ 1----|-------------------------- 3----|
B| 3------------------------ 0----| 5------------------------ 1----|
G| 0---- 0 2-- 2 0---- 0 0--------| 5-- 5---- 5------ 0-- 0-- 0----|
D|---- 3------ 3---- 3-- 0--------| 5 5------ 3------ 2-- 2--------|
A| 2------ 0----------------------|------ 5------ 4------ 3--------|
E|-------------- 3------ 1--------| 0------------------------------|
http://classicalguitartablature.blogspot.com/
E|-------------------------- 6-- 6|-- 5---- 5------------------ 5--|
B| 8---------------------- 1-- 2 6|-- 5---- 3-- 5------ 1-- 1-- 2--|
G| 7---- 7---- 7---- 5---- 3-- 3--| 7 5---- 5 3---- 2-- 1-- 2-- 2--|
D| 5-- 5------ 5-- 3-- 3-- 3------|---------------- 3-- 1-- 3-- 2--|
A|--------------------------------| 8-- 7-- 5-- 4-- 3-- 1-- 0------|
E| 7------ 6------ 5-- 4-- 3-- 2--|---------------------------- 3--|
http://classicalguitartablature.blogspot.com/
E| 5------------------------ 8-- 8|-- 7-- 7---------- 5-- 5---- 5--|
B| 3---------------- 3------ 7-- 8|--10-- 6-- 5------ 5-- 6---- 8--|
G| 2-- 2------ 2---- 5-- 7-- 7-- 7|-- 9-- 7-- 6-- 0-- 4-- 5---- 7--|
D|---- 4------ 2---- 4-- 7--------|-------------- 0---- 3 7---- 5--|
A|-------------- 5----------------|------ 5------------------------|
E| 2------ 0-------------- 8---- 7|-- 8------ 0---- 1-- 3-- 5-- 7--|
http://classicalguitartablature.blogspot.com/
E|--------------------------------|---------------------------- 3 1|
B|10-- 8-- 8---- 0---------- 8----| 8-------------------------- 2--|
G|10-- 9--10 6-- 0-- 0-- 0-- 7----| 5-- 5------ 7---------- 0-- 3--|
D|10-- 8--10 5---- 0 3-- 2-- 7----| 5-- 5------ 5---- 5---- 3------|
A|------------------------ 0------|--------------------------------|
E| 8-- 9--10-- 0-- 1 3------ 7----| 8------ 7------ 5------ 3-- 2--|
http://classicalguitartablature.blogspot.com/
E|-------------------------- 1----| 1------------------------ 1----|
B| 1------------------------ 1----| 3------------------------ 0----|
G| 2-- 2------ 0---- 0-- 0-- 0----| 0---- 0 2-- 2 0---- 0 0--------|
D|-- 3-------- 2---- 3---- 3------|---- 3------ 3---- 3-- 0--------|
A|---------------- 5---- 3--------| 2------ 0----------------------|
E| 1------ 0----------------------|-------------- 3------ 1--------|
http://classicalguitartablature.blogspot.com/
E|-------------------------- 3----|-------------------------- 6-- 6|
B| 5------------------------ 1----| 8---------------------- 1-- 2 6|
G| 5-- 5---- 5------ 0-- 0-- 0----| 7---- 7---- 7---- 5---- 3-- 3--|
D| 5 5------ 3------ 2-- 2--------| 5-- 5------ 5-- 3-- 3-- 3------|
A|------ 5------ 4------ 3--------|--------------------------------|
E| 0------------------------------| 7------ 6------ 5-- 4-- 3-- 2--|
http://classicalguitartablature.blogspot.com/
E|-- 5---- 5-------------------- 8|-- 3-- 3------------------------|
B|-- 5---- 3-- 5------------13-- 8|-- 6-- 6-- 5-- 5-- 3-- 3-- 1-- 5|
G| 7 5---- 5 3---- 2 7-- 5--10-- 9|-- 5---- 5 5-- 7-- 4-- 2-- 2-- 5|
D|---------------- 3 5-- 3--12----|-- 3---- 3 6-- 6-- 3-- 2-- 2-- 4|
A| 8-- 7-- 5-- 4-- 3----------1110|-------------------- 5----------|
E|------------------ 7---- 5------|-- 4---- 5-- 6-- 7------ 0 3-- 5|
http://classicalguitartablature.blogspot.com/
E|--------------------------------|--------------------------------|
B|---- 3-- 3---------------- 5----| 5 3-- 3------------------ 3----|
G|---- 1-- 2---- 0-- 2-------- 2--| 5 0-- 2---- 3-- 5 6-- 2-- 2-- 0|
D|---- 3-- 4---- 2-- 0-------- 2--| 3 3---- 3-- 5-- 3 5-- 0-- 2-- 2|
A|---- 2-- 3-- 5------------------|-- 2---- 3-- 4-- 5--------------|
E|---------------- 0-- 1-- 2-- 3--| 5------------------ 0 1-- 2-- 3|
http://classicalguitartablature.blogspot.com/
E|--------------------------------| 5-- 5-- 7 8---- 7-- 5-- 0------|
B| 3 1-- 1------------------ 5----| 5------ 6------ 5-- 5-- 1-- 1--|
G|------ 2---------- 2------ 4-- 5|-------- 4---- 5---- 5-- 2-- 2--|
D|---------- 2------ 2------ 4----|---------------------------- 2 3|
A|--------------------------------|--------------------------------|
E|------ 2------ 3------ 4------ 5|-------- 4---- 3------ 2------ 1|
http://classicalguitartablature.blogspot.com/
E|--------------------------------|-------------------------- 5-- 5|
B| 3-- 1-- 1---------------- 5----| 3-- 1-- 1---------------- 3-- 5|
G| 2-- 2-- 0-- 0-- 5---------- 5--| 0-- 1-- 2------ 2-------- 2-- 5|
D|---- 3 2---- 2---- 7-------- 7--| 0-- 1-- 3---------- 2----------|
A|---------------- 5--------------| 2-- 1-- 0----------------------|
E|------ 0---------------- 8------|------------ 3-- 2------ 1------|
http://classicalguitartablature.blogspot.com/
E|------ 3---------------------- 5|---- 5 7---- 8-- 7-- 5----------|
B|-- 8---- 6---------------- 5----| 5-- 5-- 5--10--10-- 5 5-- 1-- 3|
G|-- 6---- 5-- 3 2---------- 2----| 5-- 5-- 5-- 9-- 9-- 5 3-- 1-- 2|
D|-- 8-------- 5------ 4---- 3----|---------------------- 3-- 3-- 3|
A|-- 6---- 5-- 4-- 3---- 2--------|------------ 9-- 8-- 7 5-- 4-- 3|
E| 0------------------------------| 5-- 4-- 3----------------------|
http://classicalguitartablature.blogspot.com/
E|--------------------------------|-------------------------- 5-- 5|
B|-- 1-- 1------------------ 5-- 3|---- 1-- 1---------------- 7-- 5|
G|-- 1-- 2------ 2-- 0-- 5-- 3-- 2|---- 2-- 2---------- 5-- 5 5-- 4|
D|-- 1-- 3------ 3-- 2-- 3-- 5-- 4|---- 1-- 1 1-------- 6-- 7------|
A|-- 1-- 0-------------- 5-- 4-- 3|-------- 2----------------------|
E|---------- 3-- 1-- 0------------|---------------- 6---- 5------ 3|
http://classicalguitartablature.blogspot.com/
E|-- 3-- 3------------------ 3----|---------------------------- 3 1|
B|-- 5-- 3------------------ 4----| 8-------------------------- 2--|
G|-- 4-- 2-- 2-- 7------ 0-- 4----| 5-- 5------ 7---------- 0-- 3--|
D|-- 3---------- 5-- 5-- 3--------| 5-- 5------ 5---- 5---- 3------|
A|------------------ 6---- 5 4----|--------------------------------|
E|------ 1------ 0----------------| 8------ 7------ 5------ 3-- 2--|
http://classicalguitartablature.blogspot.com/
E|-------------------------- 1----| 1------------------------ 1----|
B| 1------------------------ 1----| 3------------------------ 0----|
G| 2-- 2------ 0---- 0-- 0-- 0----| 0---- 0 2-- 2 0---- 0 0--------|
D|-- 3-------- 2---- 3---- 3------|---- 3------ 3---- 3-- 0--------|
A|---------------- 5---- 3--------| 2------ 0----------------------|
E| 1------ 0----------------------|-------------- 3------ 1--------|
http://classicalguitartablature.blogspot.com/
E|-------------------------- 3----|-------------------------- 6-- 6|
B| 5------------------------ 1----| 8---------------------- 1-- 2 6|
G| 5-- 5---- 5------ 0-- 0-- 0----| 7---- 7---- 7---- 5---- 3-- 3--|
D| 5 5------ 3------ 2-- 2--------| 5-- 5------ 5-- 3-- 3-- 3------|
A|------ 5------ 4------ 3--------|--------------------------------|
E| 0------------------------------| 7------ 6------ 5-- 4-- 3-- 2--|
http://classicalguitartablature.blogspot.com/
E|-- 5---- 5-------------------- 8|-- 3-- 3------------------------|
B|-- 5---- 3-- 5------------13-- 8|-- 6-- 6-- 5-- 5-- 3-- 3-- 1-- 5|
G| 7 5---- 5 3---- 2 7-- 5--10-- 9|-- 5---- 5 5-- 7-- 4-- 2-- 2-- 5|
D|---------------- 3 5-- 3--12----|-- 3---- 3 6-- 6-- 3-- 2-- 2-- 4|
A| 8-- 7-- 5-- 4-- 3----------1110|-------------------- 5----------|
E|------------------ 7---- 5------|-- 4---- 5-- 6-- 7------ 0 3-- 5|
http://classicalguitartablature.blogspot.com/
E|--------------------------------|--------------------------------|
B|---- 3-- 3---------------- 5----| 5 3-- 3------------------ 3----|
G|---- 1-- 2---- 0-- 2-------- 2--| 5 0-- 2---- 3-- 5 6-- 2-- 2-- 0|
D|---- 3-- 4---- 2-- 0-------- 2--| 3 3---- 3-- 5-- 3 5-- 0-- 2-- 2|
A|---- 2-- 3-- 5------------------|-- 2---- 3-- 4-- 5--------------|
E|---------------- 0-- 1-- 2-- 3--| 5------------------ 0 1-- 2-- 3|
http://classicalguitartablature.blogspot.com/
E|--------------------------------|--------------------------------|
B| 3 1-- 1------------------ 5----| 5 3-- 3------------------ 3----|
G|------ 2---------- 2------ 4----| 5 0-- 2---- 3-- 5 6-- 2-- 2-- 0|
D|---------- 2------ 2------ 4----| 3 3---- 3-- 5-- 3 5-- 0-- 2-- 2|
A|--------------------------------|-- 2---- 3-- 4-- 5--------------|
E|------ 2------ 3------ 4--------| 5------------------ 0 1-- 2-- 3|
http://classicalguitartablature.blogspot.com/
E|--------------------------------|--------------------------------|
B| 3 1-- 1------------------ 5-- 5|---- 3-- 3---------------- 3-- 3|
G|------ 2---------- 2------ 4-- 5|---- 4-- 2 2---- 5------ 2 2-- 2|
D|---------- 2------ 2------ 4----| 3-- 3-- 2 1---- 5---- 3-- 3-- 3|
A|--------------------------------|---------------- 7 6---- 5-- 3--|
E|------ 2------ 3------ 4--------| 5-- 4-- 2-- 1------------------|
http://classicalguitartablature.blogspot.com/
E|--------------------------------|--------------------------------|
B|-- 1---- 1----------------------|--------------------------------|
G|-- 2---- 2----------------------|--------------------------------|
D|-- 1---- 2----------------------|--------------------------------|
A| 2-- 0--------------------------|--------------------------------|
E|------ 3------------------------|--------------------------------|
http://classicalguitartablature.blogspot.com/
0 com

Emotion

Classic Bee Gees' hit fingerstyle chord melody guitar arrangement played in the key of C.

Emotion played in the key of C.
http://classicalguitartablature.blogspot.com/
E|--------------------------------|--------------------------------|
B| 1-- 0-------------- 0------ 1--|---- 0-------------- 0-------- 1|
G| 0-- 0------ 2------ 0------ 0--|---- 0------ 2------ 0-------- 2|
D| 2-- 2------ 2------ 2------ 2--|---- 2------ 2------ 2-------- 3|
A| 3---------- 3-------------- 3--|------------ 3------------------|
E|--------------------------------|---------------------------- 0--|
http://classicalguitartablature.blogspot.com/
E|------ 3-------------------- 3--|------------ 3-------------- 3--|
B|------ 1------------ 1------ 1--|---- 1------ 1------ 1------ 1--|
G|------ 2------------ 2------ 2--|---- 2------ 2------ 2----------|
D|-------------------- 3----------|---- 3-------------- 3----------|
A|--------------------------------|--------------------------------|
E| 3------------ 3----------------| 3-------------- 3--------------|
http://classicalguitartablature.blogspot.com/
E|--------------------------------|--------------------------------|
B| 1-- 0-------------- 0------ 1--|---- 0------------ 0------------|
G| 0-- 0------ 2------ 0------ 0--|---- 0------ 2---- 0---------- 2|
D| 2-- 2------ 2------ 2------ 2--|---- 2------ 2---- 2---------- 3|
A| 3---------- 3-------------- 3--|------------ 3------------------|
E|--------------------------------|-------------------------- 0-- 3|
http://classicalguitartablature.blogspot.com/
E|------ 3-------------------- 3--|------------ 3------------------|
B|------ 1------------ 1------ 1--|---- 1------ 1------------------|
G|------ 2------------ 2------ 2--|---- 2------ 2---------- 0------|
D|-------------------- 3----------|---- 3------------------ 3------|
A|--------------------------------|------------------------ 2------|
E|-------------- 3----------------| 3-------------- 3--------------|
http://classicalguitartablature.blogspot.com/
E|--------------------------------|---------------------- 5------ 3|
B| 5-- 5-- 6-- 5------------------| 5-- 5-- 6 5------------------ 5|
G| 5-- 5-- 5-- 7-------- 7--------| 5-- 5------ 5------------------|
D| 5-- 5------ 5---- 5------ 5----| 5-- 5-- 5-- 3---- 3------ 3----|
A|--------------------------------|--------------------------------|
E| 8------------ 7----------------| 5------------ 4----------------|
http://classicalguitartablature.blogspot.com/
E|--------------------------------|--------------------------------|
B|------------ 0-------------- 0--| 8-------------- 5--------------|
G| 4---- 4---- 0-------- 0--------| 6---------- 6-- 3------ 3-- 0--|
D|-- 2-------- 0---- 0------------|---- 8------ 5------ 5-- 2-- 2--|
A|--------------------------------|-------- 6------ 4------ 3-- 1--|
E| 3-------------- 1--------------| 0------------------------------|
http://classicalguitartablature.blogspot.com/
E|--------------------------------|--------------------------------|
B| 5-- 5-- 5-- 6-- 5--------------|-------------- 3----------------|
G| 5-- 5 5---- 5-- 5 5---- 5------| 2-------- 2-- 2---- 2----------|
D| 3-- 3 3---- 3-- 3 3-------- 3--| 3-- 3------ 3 2---- 2---- 2----|
A|--------------------------------|--------------------------------|
E| 5-------------- 4--------------| 3------------ 2-- 1---- 1------|
http://classicalguitartablature.blogspot.com/
E|--------------------------------|---------------------- 5-- 7----|
B|--------------------------------|---------- 1---- 8---------- 8--|
G| 0-------- 0---- 3---------- 4--|------ 2-------- 7---------- 7--|
D|------ 2------------ 3------ 3--|-- 3------------ 5--------------|
A|---------------- 5---- 4--------| 3------------------------------|
E| 0------------------------------|---------------- 7---------- 6--|
http://classicalguitartablature.blogspot.com/
E| 5-------- 5---- 5-- 3------ 0--| 3-- 0-------- 3---- 5---- 7----|
B| 6---------- 5-- 3-- 0------ 0--| 1-- 3-------- 5---- 5---- 5----|
G| 5---------- 4-- 2-- 0------ 0--| 0-- 4------ 4 3---- 2---- 6----|
D|---- 7--------------------------|------------ 5 5---- 2----------|
A|--------------------------------|------ 5------ 4---- 3---- 4----|
E| 5------ 3------ 2------ 1------| 0------------------------------|
http://classicalguitartablature.blogspot.com/
E|--------------------------------| 3------------ 3---- 5---- 7----|
B|10----------10--10---- 8---- 5--| 5------------ 0---- 3---- 7----|
G|10---------- 9--10---- 7---- 5--| 5-------- 5-- 0---- 4---- 6----|
D|--10-------- 8--10---- 5---- 3--|-- 5------ 4--------------------|
A|--------------------------------|-------------------------- 6----|
E|10------ 9------ 8---- 7---- 5--| 3------ 2---- 1-- 0------------|
http://classicalguitartablature.blogspot.com/
E| 5---------- 5---------------- 3|--------------------------------|
B| 6---------- 8--10---- 8-- 5-- 1|---- 5-------- 1---- 3 5-- 6----|
G| 5---------- 5-- 7-------- 5----| 0-- 5-------- 1---- 2 2-- 3----|
D|---- 7---------- 7-------- 7----|---- 3------ 3-- 1-- 3 2-- 5----|
A| 5------ 7------ 8-------- 9----|---------------- 1-- 2-- 3-- 4--|
E|--------------------------------| 3---- 5------------------------|
http://classicalguitartablature.blogspot.com/
E| 3---- 0-------------------- 0--|-------- 1-- 3---------- 5-- 7--|
B| 3---- 1-- 1 3-------------- 3--| 6-- 6-- 3-- 3--10-- 8-- 6-- 8--|
G| 4------ 2 2 0------ 0-- 2-- 2--| 5-- 5-- 1-- 1--10-- 9-- 7-- 7--|
D|---- 5---- 3 3------ 3-- 3------| 3-- 3---------- 9-- 7----------|
A| 5------ 3------ 2------ 0------|--------------------------------|
E|--------------------------------| 4-- 3-- 1-- 0--10-- 8-- 7-- 6--|
http://classicalguitartablature.blogspot.com/
E| 8------------------------ 3----|-- 0---------- 5-- 3-- 5-- 7-- 8|
B| 5------10--1010---- 8---- 0----|---- 3-------- 5-- 5-- 5-- 8----|
G| 5------ 7-- 7-- 9--10 9-- 0----|---- 2---- 2-- 5-- 5-- 5-- 7----|
D|---- 5-- 9-- 9-- 7-- 910--------|---------- 0--------------------|
A|--------------------------------|--------------------------------|
E| 5------ 7------ 8--10--11---- 0|------ 1------ 2---- 3-- 4-- 6--|
http://classicalguitartablature.blogspot.com/
E|------ 5-- 8-- 5----------------|-------------- 5---------- 8----|
B| 5------ 8-- 8 8-- 8------ 8----|----------10-- 7-- 8--10-- 8----|
G| 5------ 7-- 7 7-- 7-- 9-- 9----|-- 9------10-- 5-- 5--10-- 7----|
D|-- 5-------------- 5-- 7-- 8----|-- 8------10------ 8-- 8--------|
A|--------------------------------|-------------- 6-- 7--10--------|
E| 5------ 6------ 7---- 8------ 9|------10------------------------|
http://classicalguitartablature.blogspot.com/
E|------ 5-- 8--------------------|---------------------- 0-- 1----|
B|------ 5---- 6--10-- 8-- 5 8----|-------------- 1-- 3-- 1-- 1-- 8|
G|---- 7 5---- 6--10-- 9-- 7 7----|---- 7 5------ 2-- 2---- 1 0-- 6|
D|---- 7----------10-- 8-- 7 7----|---- 6 3------ 3-- 2---- 0 0-- 8|
A| 8------ 7-- 6------------------|--------------------------------|
E|----------------10-- 9-- 8------| 7-- 6-- 5-- 4-- 3-- 2-- 1-- 0--|
http://classicalguitartablature.blogspot.com/
E|--------------------------------|-------- 1-- 3---------- 5-- 7--|
B|------ 5 1-- 3-------------- 5--| 6-- 6-- 3-- 3--10-- 8-- 6-- 8--|
G|------ 5 1-- 2------ 2-- 1-- 5--| 5-- 5-- 1-- 1--10-- 9-- 7-- 7--|
D|-- 8-- 3 3-- 3------ 3-- 3-- 3--| 3-- 3---------- 9-- 7----------|
A| 6---- 5 4---- 3---- 2-- 1------|--------------------------------|
E|---------------------------- 5--| 4-- 3-- 1-- 0--10-- 8-- 7-- 6--|
http://classicalguitartablature.blogspot.com/
E| 8------------------------ 3----|-- 0---------- 5-- 3-- 5-- 7-- 8|
B| 5------10--1010---- 8---- 0----|---- 3-------- 5-- 5-- 5-- 8----|
G| 5------ 7-- 7-- 9--10 9-- 0----|---- 2---- 2-- 5-- 5-- 5-- 7----|
D|---- 5-- 9-- 9-- 7-- 910--------|---------- 0--------------------|
A|--------------------------------|--------------------------------|
E| 5------ 7------ 8--10--11---- 0|------ 1------ 2---- 3-- 4-- 6--|
http://classicalguitartablature.blogspot.com/
E|------ 5-- 8-- 5----------------|-------------- 5---------- 8----|
B| 5------ 8-- 8 8-- 8------ 8----|----------10-- 7-- 8--10-- 8----|
G| 5------ 7-- 7 7-- 7-- 9-- 9----|-- 9------10-- 5-- 5--10-- 7----|
D|-- 5-------------- 5-- 7-- 8----|-- 8------10------ 8-- 8--------|
A|--------------------------------|-------------- 6-- 7--10--------|
E| 5------ 6------ 7---- 8------ 9|------10------------------------|
http://classicalguitartablature.blogspot.com/
E|------ 5-- 8--------------------|---------------------- 0-- 1----|
B|------ 5---- 6--10-- 8-- 5 8----|-------------- 1-- 3-- 1-- 1-- 8|
G|---- 7 5---- 6--10-- 9-- 7 7----|---- 7 5------ 2-- 2---- 1 0-- 6|
D|---- 7----------10-- 8-- 7 7----|---- 6 3------ 3-- 2---- 0 0-- 8|
A| 8------ 7-- 6------------------|--------------------------------|
E|----------------10-- 9-- 8------| 7-- 6-- 5-- 4-- 3-- 2-- 1-- 0--|
http://classicalguitartablature.blogspot.com/
E|--------------------------------|--------------------------------|
B|------ 5 1-- 3------------------|--------------------------------|
G|------ 5 1-- 2------ 2-- 1-- 5--|------------ 5------ 7------ 7--|
D|-- 8-- 3 3-- 3------ 3-- 3-- 3--|---- 3------ 3------ 5------ 5--|
A| 6---- 5 4---- 3---- 2-- 1------|--------------------------------|
E|--------------------------------| 4------ 5------ 6------ 7------|
http://classicalguitartablature.blogspot.com/
E|--------------------------------|--------------------------------|
B| 1-- 0-------------- 0------ 1--|---- 0-------------- 0----------|
G| 0-- 0------ 2------ 0------ 0--|---- 0------ 2------ 0----------|
D| 2-- 2------ 2------ 2------ 2--|---- 2------ 2------ 2----------|
A| 3---------- 3-------------- 3--|------------ 3------------------|
E|--------------------------------|---------------------------- 0--|
http://classicalguitartablature.blogspot.com/
E|------ 3-------------------- 3--|---------- 3--------------------|
B| 1---- 1------------ 1------ 1--|---- 1---- 1--------------------|
G| 2---- 2------------ 2----------|---- 2---- 2---- 5-------- 7----|
D| 3------------------ 3----------|---- 3-------------- 3---- 5----|
A|--------------------------------|--------------------------------|
E| 3-------------- 3--------------| 3------------ 5-------- 7------|
http://classicalguitartablature.blogspot.com/
E|--------------------------------|--------------------------------|
B| 1-- 0------------------------ 1|-- 0---------------- 0-------- 1|
G| 0-- 0---- 2------ 4---------- 0|-- 2------ 2-------- 0---- 0-- 1|
D| 2-- 0---- 2------ 3------ 3-- 2|-- 2------ 2-------- 0------ 0 3|
A| 3---- 2------ 0----------------|--------------------------------|
E|---------------------- 4------ 3|------ 2------ 1------ 0--------|
http://classicalguitartablature.blogspot.com/
E|--------------------------------|--------------------------------|
B|---- 1---- 1-- 1-------- 3------|---- 5--------------------------|
G|---- 1---- 2---- 2------ 1------|-- 5----------------------------|
D|---- 3---- 3-------- 1-- 3-- 3--|-- 3----------------------------|
A| 5-- 4---- 3---- 2------ 1------|--------------------------------|
E|--------------------------------| 5------------------------------|
http://classicalguitartablature.blogspot.com/
0 com

Always On My Mind

Classic pop tune fingerstyle solo guitar arrangement played in the key of C.

Always On My Mind played in the key of C.
http://classicalguitartablature.blogspot.com/
E|-------------- 0-- 0-- 1-- 1----|--------------------------------|
B|------ 3-- 3-- 1------ 3-- 3-- 8|--------------------------------|
G| 5---- 2-- 2-- 2-- 2-- 1-- 1-- 5|-------------- 3------------ 2--|
D|---- 3 3-- 3------ 2------------|-- 5-------- 7---- 5-------- 3--|
A|------------------------------ 7|------ 5------ 4------ 3--------|
E| 4---- 3------ 2------ 1--------|--------------------------------|
http://classicalguitartablature.blogspot.com/
E|------------------ 1------------|--------------------------------|
B|------ 3-- 3-- 6-- 3-- 5-- 5----| 1---------- 1-- 3-------- 3----|
G| 2-- 1 5-- 5-- 5-- 1-- 7-- 6----| 1------ 1------ 4---- 4--------|
D| 3 3-- 3-- 3-- 3------ 5-- 5----|-- 3-------------- 3------------|
A| 2-- 1---------------- 7-- 6----| 5-------------- 4--------------|
E|-------- 5-- 4 3-- 1------------|--------------------------------|
http://classicalguitartablature.blogspot.com/
http://classicalguitartablature.blogspot.com/
E|------------------------------ 0|--------------------------------|
B|------------ 5 6 8-------- 6 5--| 3-- 3--------------------------|
G| 5-------- 7---- 5-------- 5 5--| 0-- 0-------- 0------------ 4--|
D|---- 5---- 5-------- 5---- 3----|------ 0-- 0-------- 5------ 5--|
A|--------------------------------|---------------------- 5--------|
E| 8---- 7-------- 5------ 4------| 3------ 1------ 0--------------|
http://classicalguitartablature.blogspot.com/
E|--------------------------------|--------------------------------|
B| 1---- 1---- 3-- 5-- 3-- 1-- 0--|--------------------------------|
G| 2------ 1------ 5-- 4-- 3-- 3--| 2------------ 5---------- 4----|
D|---- 2-- 1------ 5-- 3-- 3-- 2--|---- 2---- 2------ 3------ 3----|
A| 3------ 1----------------------|-------------- 5------ 4--------|
E|---------------- 5-- 4-- 3-- 2--| 1------ 0----------------------|
http://classicalguitartablature.blogspot.com/
E|------------------------------ 0|--------------------------------|
B|------------ 5 6 8-------- 6 5--| 3-- 3--------------------------|
G| 5-------- 7---- 5-------- 5 5--| 0-- 0-------- 0------------ 4--|
D|---- 5---- 5-------- 5---- 3----|------ 0-- 0-------- 5------ 5--|
A|--------------------------------|---------------------- 5--------|
E| 8---- 7-------- 5------ 4------| 3------ 1------ 0--------------|
http://classicalguitartablature.blogspot.com/
E|--------------------------------|--------------------------------|
B| 1---- 1---- 3-- 5-- 3-- 1-- 0--|--------------------------------|
G| 2------ 1------ 5-- 4-- 3-- 3--| 2------ 5------ 7-- 5 3--------|
D|---- 2-- 1------ 5-- 3-- 3-- 2--| 2------ 7------ 5-- 3 3-- 2----|
A| 3------ 1----------------------|-------- 5-------------------- 8|
E|---------------- 5-- 4-- 3-- 2--| 1-- 0------ 8-- 7-- 5-- 3 2----|
http://classicalguitartablature.blogspot.com/
E|-------------- 5---------- 3----|-------------- 0----------------|
B|---------- 6 8 6------------ 6 5|------------ 1 0----------------|
G|-- 5------ 6 6 5---- 5-- 3---- 4|---------- 1-- 5-- 4-- 3-- 3-- 5|
D|-- 7---- 6-------- 7---- 5------|---- 5---- 1------ 3-- 3-- 2-- 7|
A|------ 6------ 5------ 4--------| 3------ 1-------------------- 8|
E|--------------------------------|---------------- 5-- 4 3---- 2--|
http://classicalguitartablature.blogspot.com/
E|---------------- 1--------------|--------------------------------|
B|------ 6-- 6-- 1-- 5-- 3---- 1--| 5-- 3--------------------------|
G|------ 5-- 3-- 2-- 2-- 1---- 2--| 5 5 2------ 6-- 5---- 4---- 5--|
D|------ 3-- 5-- 3---- 3 3---- 3--| 3-- 3------ 5-- 7------ 5-- 3--|
A|-- 7-- 5-- 4-- 3---- 2-- 1-- 0--|-------------- 5----------------|
E|--------------------------------| 4-- 3-- 1-- 0------ 8-- 7-- 5--|
http://classicalguitartablature.blogspot.com/
E|------------------------ 1 1----|--------------------------------|
B|------ 3-- 3-- 5-- 5---- 1 3-- 8|------------ 8------------------|
G| 0-- 2 1-- 0-- 5-- 3-- 2-- 0-- 7|------ 7-- 6-------- 5------ 0 2|
D| 0-- 2 0-- 0-- 3-- 5-- 3--------|---- 6---- 5------ 6------ 2----|
A|---------------- 5-- 4 3-- 2----|--------------------------------|
E| 3-- 2-- 1-- 0---------------- 6|-------- 5------ 4------ 3---- 2|
http://classicalguitartablature.blogspot.com/
E|--------------------------------|------------------------------ 3|
B|-------- 3-- 3-- 6-- 6-- 5-- 5--|------------------------------ 5|
G|-------- 2-- 2-- 6-- 5-- 3-- 4--| 5---- 5---- 5---- 5-- 5------ 5|
D|---- 2-- 3-- 3-- 5-- 3-- 5-- 5--| 5-- 5------ 5---- 3------ 3----|
A|-------------- 6---- 5-- 4-- 2--|--------------------------------|
E|-------- 1 0--------------------| 8------ 6------ 5---- 4------ 3|
http://classicalguitartablature.blogspot.com/
E|---------------------------- 5--|--------------------------------|
B|-------------------------- 8-- 1|---------------------- 3-- 5-- 6|
G|------------ 5-- 7-------- 7-- 2|---- 2------ 4 5------ 1-- 5-- 5|
D|-- 5-------- 3---- 5------------|-- 2------ 6------ 5-- 3-- 5-- 5|
A|------------------------------ 3|-------- 5----------------------|
E|-------- 5---- 6------ 7--------|-------------- 0-------- 1-- 3--|
http://classicalguitartablature.blogspot.com/
E|--------------------------------|--------------------------------|
B|---- 5 3-- 1-- 6-- 5-- 3---- 1--| 5-- 3------------------------ 8|
G|-- 7-- 2---- 3 5-- 5-- 2---- 2--| 5 5 5---------- 7------------ 5|
D|-- 5-- 3---- 2 7-- 5---- 0-- 2--| 3-- 3------ 3------ 5---- 5----|
A|-------- 3-- 4-- 5-- 7----------|--------------------------------|
E| 5-- 7------------------ 1-- 2--| 3------ 5------ 6------ 7------|
http://classicalguitartablature.blogspot.com/
E|-------------------------- 5----|--------------------------------|
B|-------------------------- 6-- 1|------------------------------ 1|
G|------------ 7-- 5-------- 5-- 1|---------- 2-- 2---------- 0-- 2|
D|---- 5------ 5------ 6-------- 3|-- 3------ 2------ 2------ 2----|
A|--------------------------------|--------------------------------|
E| 8------ 7------ 6---- 5------ 4|------ 3------ 2------ 0------ 1|
http://classicalguitartablature.blogspot.com/
E| 1---------------------------- 0|--------------------------------|
B|---- 5-- 3 1-- 6-- 5---- 3 1-- 1|-- 1 3--------------------------|
G|------ 0------ 5-- 3---- 2---- 0|-- 0 1---------- 5---------- 5 4|
D|------ 2-------- 3-- 5-- 3------|-- 3 3------ 3------ 3------ 3--|
A|---------------- 5-- 4-- 3---- 2|-------- 1----------------------|
E|------ 0------------------------|---------------- 5------ 4---- 3|
http://classicalguitartablature.blogspot.com/
E|-------------- 0-- 0-- 1-- 1----|--------------------------------|
B|------ 3-- 3-- 1------ 3-- 3-- 8|--------------------------------|
G|------ 4------ 2-- 2-- 1-- 1-- 5|-------------- 3------------ 2--|
D|-- 5-- 3-- 3------ 2------------|-- 5-------- 7---- 5-------- 3--|
A|------------------------------ 7|------ 5------ 4------ 3--------|
E|-------------- 2------ 1--------|--------------------------------|
http://classicalguitartablature.blogspot.com/
E|--------------------------------|--------------------------------|
B|------ 3-- 3-- 6-- 6---- 5-- 5--| 1------------------------------|
G| 2-- 1 5-- 5-- 5-- 5---- 5-- 7--| 0------------ 5-------------- 4|
D| 3 3-- 3-- 3-- 3-- 3---- 6-- 5--| 2-- 2------ 2---- 3------ 3----|
A| 2-- 1--------------------------| 3------ 1----------------------|
E|-------- 5-- 4-- 3-- 5-- 6-- 7--|---------------- 5---- 4------ 3|
http://classicalguitartablature.blogspot.com/
E|-------------- 0-- 0-- 1-- 1----|--------------------------------|
B|------ 3-- 3-- 1------ 3-- 3-- 8|--------------------------------|
G|------ 4------ 2-- 2-- 1-- 1-- 5|-------------- 3------------ 2--|
D|-- 5-- 3-- 3------ 2------------|-- 5-------- 7---- 5-------- 3--|
A|------------------------------ 7|------ 5------ 4------ 3--------|
E|-------------- 2------ 1--------|--------------------------------|
http://classicalguitartablature.blogspot.com/
E|------------------ 1------------|--------------------------------|
B|------ 3-- 3-- 6-- 3-- 5-- 5----| 1---------- 1-- 3-------- 3----|
G| 2-- 1 5-- 5-- 5-- 1-- 7-- 6----| 1------ 1------ 4---- 4--------|
D| 3 3-- 3-- 3-- 3------ 5-- 5----|-- 3-------------- 3------------|
A| 2-- 1---------------- 7-- 6----| 5-------------- 4--------------|
E|-------- 5-- 4 3-- 1------------|--------------------------------|
http://classicalguitartablature.blogspot.com/
E|--------------------------------|--------------------------------|
B|-- 5----------------------------|--------------------------------|
G| 4------------------------------|--------------------------------|
D| 2------------------------------|--------------------------------|
A| 3------------------------------|--------------------------------|
E|--------------------------------|--------------------------------|
http://classicalguitartablature.blogspot.com/
0 com

The Greatest Love Of All

Classic George Benson/Whitney Houston's hit fingerstyle chord melody guitar arrangement played in the key of G.

Greatest Love Of All played in the key of G.
http://classicalguitartablature.blogspot.com/
E|--------------------------------|--------------------------------|
B|---- 0 0 0---- 0-- 0 0 0--------|---- 0 0-------- 5 3---- 0------|
G|---- 0 0 0---- 0-- 0 0 0 2 0----|---- 0 0 2 0-- 0 4 0---- 2 2----|
D|-- 0-- 0 0---- 1-- 1 1 1 1---- 1|-- 2-------- 2-- 3 2-- 2-- 0-- 3|
A|--------------------------------|-------------------- 0-- 2-- 4--|
E| 3-------------- 3---------- 3--| 3-------------- 3--------------|
http://classicalguitartablature.blogspot.com/
E|---- 0 0 0 0-- 0-- 0 0 0--------|------ 0---------- 0------------|
B|---- 3-- 3 3-- 3-- 3-- 3 1------| 1 3------ 3---------- 3-- 1-- 3|
G|---- 0 0 0 0-- 1-- 1---- 1 1-- 1|-------- 2-- 2 2-- 1-- 1 1-- 1 2|
D|-- 2---------------------- 2 2--|--------------------------------|
A| 3-------------- 3------------ 3|---------------- 3------------ 2|
E|--------------------------------|--------------------------------|
http://classicalguitartablature.blogspot.com/
http://classicalguitartablature.blogspot.com/
E|--------------------------------|--------------------------------|
B|---------- 5------------------ 0| 0---------------- 7 5-- 3------|
G|------ 2------ 2 0---- 0-- 0 2--| 2-- 2-- 2-- 2---- 5 5-- 5-- 5--|
D|---- 4------ 4------ 2----------|-- 2-- 2-- 4------ 5 5---- 4 4--|
A|-------- 0----------------------|-------- 6------ 5------ 3------|
E|---------------- 3------ 2------| 0------------------------------|
http://classicalguitartablature.blogspot.com/
E|--------------------------------|--------------------------------|
B| 3-------- 5---------------- 0 0|------------ 0---- 3-- 0--------|
G| 2---- 2------ 2 0-- 0-- 0 2-- 2|-- 2-- 2-- 2---- 5 2-- 2-- 2----|
D|---- 4------ 4------ 2----------| 2-- 2-- 4-------- 5-- 4-- 0-- 2|
A| 2------ 0----------------------|------ 6-------- 5-- 3-- 2-- 0--|
E|---------------- 3---- 2------ 0|--------------------------------|
http://classicalguitartablature.blogspot.com/
E|--------------------------------|--------------------------------|
B|---- 0 0 0---- 0-- 0 0 0--------|---- 0 0-------- 5 3---- 0------|
G|---- 0 0 0---- 0-- 0 0 0 2 0----|---- 0 0 2 0-- 0 4 0---- 2 2----|
D|-- 0-- 0 0---- 1-- 1 1 1 1---- 1|-- 2-------- 2-- 3 2-- 2-- 0-- 3|
A|--------------------------------|-------------------- 0-- 2-- 4--|
E| 3-------------- 3---------- 3--| 3-------------- 3--------------|
http://classicalguitartablature.blogspot.com/
E|---- 0 0 0 0-- 0-- 0 0 0--------|------ 0---------- 0------------|
B|---- 3-- 3 3-- 3-- 3-- 3 1------| 1 3------ 3---------- 3-- 1-- 3|
G|---- 0 0 0 0-- 1-- 1---- 1 1-- 1|-------- 2-- 2 2-- 1-- 1 1-- 1 2|
D|-- 2---------------------- 2 2--|--------------------------------|
A| 3-------------- 3------------ 3|---------------- 3------------ 2|
E|--------------------------------|--------------------------------|
http://classicalguitartablature.blogspot.com/
E|--------------------------------|--------------------------------|
B|---------- 5------------------ 0| 0---------------- 7 5-- 3------|
G|------ 2------ 2 0---- 0-- 0 2--| 2-- 2-- 2-- 2---- 5 5-- 5-- 5--|
D|---- 4------ 4------ 2----------|-- 2-- 2-- 4------ 5 5---- 4 4--|
A|-------- 0----------------------|-------- 6------ 5------ 3------|
E|---------------- 3------ 2------| 0------------------------------|
http://classicalguitartablature.blogspot.com/
E|--------------------------------|--------------------------------|
B| 3-------- 5---------------- 0 0|------------ 0---- 3-- 0--------|
G| 2---- 2------ 2 0-- 0-- 0 2-- 2|-- 2-- 2-- 2---- 5 2-- 2---- 2--|
D|---- 4------ 4------ 2----------| 2-- 2-- 4-------- 5-- 4-- 0-- 3|
A| 2------ 0----------------------|------ 6-------- 5-- 3-- 2-- 4--|
E|---------------- 3---- 2------ 0|------------------------------ 8|
http://classicalguitartablature.blogspot.com/
E|--------------------------------| 2 2 3 3-- 5-- 7-- 7 5----------|
B|-- 8 8-- 8-- 8-- 7-- 8-- 8---- 8| 3 3-- 3------ 5-- 5 6-- 8-- 7--|
G|-- 9-- 9 7-- 7-- 6------ 5-- 5--| 2 2-- 2 2-- 2 5-- 5---- 5-- 6--|
D|-- 9-- 9-- 5-- 5-- 5 5---- 5----|-------------------------- 7-- 7|
A|------------------------ 5------|------------------ 6---- 5-- 4--|
E|-------- 7------ 6------ 5------| 3---- 2------ 0----------------|
http://classicalguitartablature.blogspot.com/
E|---------------- 2-- 3-- 3------|-------------- 7---- 5------ 2--|
B| 7-- 8-- 8-- 8-- 3-- 3-- 3-- 7--| 7 8---- 8--10-- 8-- 8-- 8-- 5--|
G| 7-- 7-- 7-- 5---- 2-- 2 2-- 5--| 5-- 5-- 9-- 8-- 7-- 7-- 5-- 4--|
D|-- 7-- 5-- 5-- 5---------- 1-- 5|-- 7-- 7-- 9-- 7-- 7-- 5-- 5-- 2|
A|--------------------------------| 6-- 5--------------------------|
E| 8-- 7-- 6-- 5-- 3-- 2-- 1 0----|-------- 9-- 8-- 7-- 6-- 5-- 3--|
http://classicalguitartablature.blogspot.com/
E| 2-- 3--------------------------|------ 3-- 5-- 7-- 5-- 3--------|
B| 3-- 3-- 8-- 7-- 7-- 8-- 8---- 7| 7-- 8-- 5-- 5 8-- 8-- 3------ 4|
G| 2-- 2-- 5-- 5-- 5-- 9-- 8---- 7| 7-- 5-- 5-- 5 5-- 5-- 3------ 3|
D|-- 2-- 1-- 5-- 7-- 5-- 9-- 7-- 5|-- 5-- 5-- 5-------- 5---- 5----|
A|------------ 6-- 5--------------|---------------- 8 7-- 6---- 5 3|
E| 2-- 1-- 0---------- 9-- 8-- 7--| 6-- 5-- 3-- 2------------------|
http://classicalguitartablature.blogspot.com/
E|-------------------- 3----------|--------------------------------|
B|-------------------- 5-- 7-- 5 3|---------- 5--------------------|
G|-------- 5-- 4------ 4-- 5-- 6--| 2---- 2------ 2---- 0------ 2--|
D|-- 5------ 5 3------ 5-- 7-- 5--|---- 4------ 4---- 2------ 1----|
A|--------------------------------| 2------ 0-------------------- 7|
E|---- 6-- 5---- 4 3------ 5-- 6--|-------------- 3------ 2--------|
http://classicalguitartablature.blogspot.com/
E|--------------------------------|--------------------------------|
B|-------- 8---- 7-- 5-- 3--------| 3------------ 3----------------|
G|---- 5------ 5 5------ 5-- 5----| 2---- 2-- 2-- 4---- 4---- 2----|
D|-- 5------ 5---- 5-- 5---- 4 4--|---- 4-- 4-------- 2---- 1-- 1--|
A|------ 6------ 5------ 3--------| 2------ 0-------------------- 7|
E|--------------------------------|-------------- 3-------- 2------|
http://classicalguitartablature.blogspot.com/
E|--------------------------------|--------------------------------|
B|-------- 8---- 7---- 7 5---- 5 3|-------- 5------------------ 0 0|
G|---- 5------ 5 5-- 5-- 2-- 2----|---- 2------ 2 0---- 0-- 0 2 0 2|
D|-- 5------ 5---- 5------ 4------|---- 4---- 4------ 2------------|
A|------ 6------ 5------ 3------ 2|------ 0------------------------|
E|--------------------------------|-------------- 3------ 2------ 0|
http://classicalguitartablature.blogspot.com/
E|--------------------------------|---------- 8-- 7------ 5--------|
B|---------- 0-------- 3-- 0------|----------10---- 8-- 8 7--------|
G|-- 2-- 2-------- 5-- 2-- 2-- 2--| 0-- 0---- 9------ 8-------- 5--|
D| 2-- 2---- 4 4---- 5-- 4-- 0-- 2|---- 0-------------------- 7----|
A|------ 6-------- 5-- 3-- 2-- 0--|-------- 9------ 8------ 6------|
E|--------------------------------| 3------------------------------|
http://classicalguitartablature.blogspot.com/
E| 3---------- 5------------------|---------- 8-- 7-- 5-- 3--------|
B| 0-- 0------ 3 1----------------|-- 3------ 6-- 5-- 5-- 3-- 6-- 8|
G|------ 0-- 4-- 2---- 2 7------ 5|------ 4------ 4-- 4-- 2-- 7-- 5|
D|-- 0-------------- 2-- 6--------| 3-- 3---- 6------------ 1-- 6--|
A|-------- 5---- 3----------------|------------------------------ 6|
E| 0-------------------- 7-- 6-- 5|------ 4------ 3---- 2 1-- 0----|
http://classicalguitartablature.blogspot.com/
E|--------------------------------|-------------- 7------ 5------ 3|
B|---------------- 5--------------|-------------- 6------ 5--------|
G|------ 5---- 5-- 3-- 3------ 2--| 7-- 7------ 7------ 5 5---- 5--|
D|-- 7------ 7------ 5------ 2----|-- 5------ 5------ 5------ 4----|
A|-------- 5------ 4------ 3------|--------------------------------|
E|--------------------------------| 7---- 6------ 5------ 4--------|
http://classicalguitartablature.blogspot.com/
E|--------12----10 8--------------|12------10---- 8-------------- 8|
B| 1--------10-- 8-- 8------------|11------13----10------12------ 5|
G|---- 0---- 9 9 8-- 8-- 8---- 7--| 9--10--12------ 9----10--------|
D|-- 2------10------ 7------ 7----|----10------10----10--12--------|
A|------ 9-------- 8---- 7--------|---------------- 8-- 910--11----|
E| 3------------------------------| 9--10--11--12---------------- 5|
http://classicalguitartablature.blogspot.com/
E|--------------------------------|--12------10------------ 8------|
B|--------------------------------|10-------- 8------------ 7------|
G|---- 5------ 4------ 2---- 2----| 9-------- 7---------- 5--------|
D|-- 5------ 3------ 2-------- 0--|--------------------------------|
A|------------------------------ 8|---------- 7---------- 6--------|
E|-------- 4------ 3------ 2------|--------------------------------|
http://classicalguitartablature.blogspot.com/
E|---- 7-------------------- 8----|--------------------------------|
B|---- 6-------------------- 6----|--------------------------------|
G|---- 5-------------------- 5----|--------------------------------|
D|--------------------------------|--------------------------------|
A|-- 5---------------------- 4----|--------------------------------|
E|--------------------------------|--------------------------------|
http://classicalguitartablature.blogspot.com/
0 com

A Whiter Shade Of Pale

A beautiful Gary Brooker and Keith Reid's song fingerstyle solo guitar arrangement played in the key of E.

A Whiter Shade Of Pale played in the key of E.
http://classicalguitartablature.blogspot.com/
E| 4------------------------------|------------------------ 4------|
B| 5------------------------------|-- 7---- 5 4---- 5-- 7-- 4-- 5--|
G| 4-------- 4-- 4---------- 2----|-- 6-- 6------ 6------ 4---- 4--|
D|---- 6------ 4------ 2---- 4----|-- 6-- 6-- 6-- 4------------ 3--|
A|-------- 6---- 4------ 3--------|--------------------------------|
E| 0---------------------------- 7|------ 6------ 5------ 4---- 3--|
http://classicalguitartablature.blogspot.com/
E| 9----------------------1112----|------------------------------11|
B|10--------------------12------10| 910---------------------- 7--12|
G| 9------ 7---------- 611------ 9|-------- 9------ 9---- 6-- 6--11|
D|----11------ 9------ 7--------10|------------ 7------ 7 6-- 6----|
A| 9------ 8------ 7--------------|------------------------------ 0|
E|----------------------11------10|-------- 9------ 8------ 7-- 6--|
http://classicalguitartablature.blogspot.com/
http://classicalguitartablature.blogspot.com/
E|--11------------------12--14-- 7| 5-- 7--------------------------|
B|--14------------------14------ 4|----------------------------10--|
G|-------- 4-------- 2--14------ 4|-------- 4------ 9---------- 9--|
D|---------- 2------ 2------------|------------ 4------ 7------ 7--|
A|------------------------------ 6|-------- 5----------------------|
E|-------- 4------ 2---- 0--------|---------------- 9------ 8---- 7|
http://classicalguitartablature.blogspot.com/
E|---------------- 9---------- 7--| 7------------------------------|
B|10-- 9-- 7-- 5-- 9---------- 4--| 7---------------------------- 5|
G| 9-- 9-- 6------ 9-- 9------ 4--| 7---------- 7------ 8------ 5--|
D| 9-- 9-- 6----------------------|---- 9------ 7------ 7------ 7--|
A|------------------------------10|-------- 9------ 8------ 6------|
E|------ 6------ 5-------- 4------|--------------------------------|
http://classicalguitartablature.blogspot.com/
E|---------- 4--------------------|--------------------------------|
B|-------- 7 7 7 9---------- 7-- 7|-- 5----------------------------|
G| 4------ 4 4 4 9---------- 6-- 6|------ 6 5---------- 4-- 4------|
D|-- 6---- 4-- 4 9-- 9------ 6-- 6|---- 6------ 4------ 2------ 2--|
A|-------- 6----------------------|--------------------------------|
E| 0------------ 9------ 7------ 6|-------- 5------ 4------ 3---- 2|
http://classicalguitartablature.blogspot.com/
E|--------------------------------|--------------------------------|
B|---------- 5 5 2 5---------- 5 2| 5 2----------------------------|
G| 2-------- 2 2 2 4---------- 2 2| 2---- 2 2---------- 1-- 5------|
D| 2-- 2---- 2 2 2 4-- 4------ 2 2|---- 4------ 2------ 2------ 4--|
A|-------------- 5-------- 4---- 3|-------- 2------ 1--------------|
E|-------- 0----------------------|------------------------ 5------|
http://classicalguitartablature.blogspot.com/
E|--------------------------------|--------------------------------|
B|-------- 4 4 2-- 4---------- 2--|------------------------------ 5|
G| 4------ 4 4 4-- 2-------- 2----| 6 4---------- 2---- 2------ 2 4|
D|---- 2-- 2 2 2 2---- 2---- 2-- 4|---- 4------ 4---- 2-- 2-- 4----|
A|------------------------------ 6|------ 5------ 4------ 3--------|
E| 4---- 3------ 2-------- 0------|------------------------------ 7|
http://classicalguitartablature.blogspot.com/
E|---------------- 4--------------| 2------------------------------|
B|---------- 9 9 7 5---------- 7--| 5 5----------------------------|
G|---------- 6 6 6------------ 4--| 4---- 4 2---------- 1------ 2--|
D|---- 6---- 6 6 6---- 4---- 6----|---- 2------ 2------ 0------ 2--|
A|--------------------------------|--------------------------------|
E|-------- 6---- 5-------- 4---- 3|-------- 2------ 1------ 0------|
http://classicalguitartablature.blogspot.com/
E|--------------------------------| 0------------------------------|
B|---------- 5 2-- 5---------- 2--| 2 2----------------------------|
G| 4-------- 2 2-- 2-------- 2-- 1|------ 1 5---------- 4-------- 2|
D|---- 4---- 2 2 4-- 4---- 2------|---- 2------ 4------ 2------ 2--|
A| 6------ 4---- 3------ 2------ 1|--------------------------------|
E|--------------------------------|-------- 5------ 4------ 3---- 2|
http://classicalguitartablature.blogspot.com/
E|--------------------------------|--------------------------------|
B|-------- 4 4 2 4---------- 2----| 2---------- 4------ 2------ 2 5|
G|-------- 2 2 2 4------ 2-- 2----|-- 4 4---- 4------ 4------ 2-- 4|
D|---- 2-- 2 2 2 4------ 2-- 2-- 2|-- 2------ 4---- 2------ 2------|
A|-------------- 6-- 5-- 4---- 3 2|--------------------------------|
E|------ 0------------------------|-------- 5------ 4------ 2---- 0|
http://classicalguitartablature.blogspot.com/
E|---------- 4 4-- 7------------ 9|---------- 4-------- 4-- 4 2----|
B|---------- 4 4-- 5---------- 9 9|---- 9---- 5-------- 5-- 2---- 5|
G|---------- 4 4-- 4---------- 9 9|---- 9---- 5-------- 4-- 4------|
D|---- 6-------------- 6------ 9--|---------- 4---- 4--------------|
A|------ 6-------- 4--------------|--------------------------------|
E|------------------------ 7------| 6---- 5------ 4-------- 3------|
http://classicalguitartablature.blogspot.com/
E|--------------------------------|---------------- 4---- 4---- 7 9|
B|---------- 5 5 7-- 5-- 5-- 2----| 5 2------------ 4---- 2---- 8 9|
G| 2-------- 2 2-- 6 6---- 2---- 2| 2---- 2 4-- 4-- 4---- 2---- 8 8|
D|---- 2---- 2 2-- 5 5 5-- 2-- 2--| 4-- 4---- 4-- 4----------------|
A|---------------- 6------ 4------| 3-------------------------- 8--|
E| 2------ 0----------------------|-------- 5------ 4---- 2--------|
http://classicalguitartablature.blogspot.com/
E|--------------------------------|--------------------------------|
B|---- 9--------12------------ 9 9|---------- 7-- 5----------------|
G|-- 8-------- 611----11------ 9 9|---- 9---- 6-- 5------ 5--------|
D|---------- 6------10------ 7----|-- 7---- 6---------- 4------ 4--|
A|-------- 6----------------------|--------------------------------|
E| 0--------------10---- 9------ 8|------ 6------ 5-------- 4------|
http://classicalguitartablature.blogspot.com/
E|-------------- 0----------------|--------------------------------|
B|---------- 5 5 2 3---------- 2 5| 2---- 2---- 2------------------|
G| 4-------- 2 2 2------ 2-- 2-- 2|---- 2-- 2 2------ 2-------- 3--|
D|---- 2 2-- 2 2 2---- 0-- 2---- 4|-- 4------ 4---- 2-- 2---- 2----|
A|------------------------------ 6|-------- 5---- 4------ 3--------|
E| 3------ 2------ 1---- 0--------|--------------------------------|
http://classicalguitartablature.blogspot.com/
E|--------------------------------|--------------------------------|
B|-------- 4 4---- 4---------- 2--| 2 0-------- 0-------- 2-- 5-- 5|
G|---- 4-- 4 4 6-- 4-- 4---- 4----| 2---- 2-- 1-------- 2 4-- 4-- 2|
D|-- 4---- 4---------- 2---- 2-- 2|---- 2---- 0------ 2------ 4-- 4|
A|--------------------------------|---------------------- 6-- 5-- 4|
E| 7---- 5-------- 4------ 3---- 2|-------- 1------ 0--------------|
http://classicalguitartablature.blogspot.com/
E|--------------------------------|--------------------------------|
B|------------ 5------------ 5-- 5|-------------- 5------------ 3--|
G|---- 2---- 2-------- 6 6-- 5----| 4---- 4---- 4-- 2---------- 2--|
D|-- 2---- 2-------- 6---- 6---- 4|---- 4---- 3-------- 2---- 1----|
A|------ 3------------------------|--------------------------------|
E|-------------- 7------ 6-- 5----| 4------ 3------ 2------ 1------|
http://classicalguitartablature.blogspot.com/
E| 4------------------------------|------------------------ 4------|
B| 5---- 4------------------------|-- 7---- 5 4---- 5-- 7-- 4-- 5--|
G| 4---------- 4-- 4---------- 2--|-- 6-- 6------ 6------ 4---- 4--|
D|---- 6------ 4------ 2------ 4--|-- 6-- 6-- 6-- 4------------ 3--|
A|-------- 6------ 4------ 3------|--------------------------------|
E| 0---------------------------- 7|------ 6------ 5------ 4---- 3--|
http://classicalguitartablature.blogspot.com/
E| 9----------------------1112----|------------------------------11|
B|10--------------------12------10| 910---------------------- 7--12|
G| 9------ 7---------- 611------ 9|-------- 9------ 9---- 6-- 6--11|
D|----11------ 9------ 7--------10|------------ 7------ 7 6-- 6----|
A| 9------ 8------ 7--------------|------------------------------ 0|
E|----------------------11------10|-------- 9------ 8------ 7-- 6--|
http://classicalguitartablature.blogspot.com/
E|--11------------------12--14-- 7| 5-- 7--------------------------|
B|--14------------------14------ 4|----------------------------10--|
G|-------- 4-------- 2--14------ 4|-------- 4------ 9---------- 9--|
D|---------- 2------ 2------------|------------ 4------ 7------ 7--|
A|------------------------------ 6|-------- 5----------------------|
E|-------- 4------ 2---- 0--------|---------------- 9------ 8---- 7|
http://classicalguitartablature.blogspot.com/
E|---------------- 9---------- 7--| 7------------------------------|
B|10-- 9-- 7-- 5-- 9---------- 4--| 7------------------------------|
G| 9-- 9-- 6------ 9-- 9------ 4--| 7---------- 7------ 8------ 5--|
D| 9-- 9-- 6----------------------|---- 9------ 7------ 7------ 7--|
A|------------------------------10|-------- 9------ 8------ 6------|
E|------ 6------ 5-------- 4------|------------------------------ 0|
http://classicalguitartablature.blogspot.com/
E|-- 0----------------------------|--------------------------------|
B|-- 0----------------------------|--------------------------------|
G| 1------------------------------|--------------------------------|
D| 4------------------------------|--------------------------------|
A| 2------------------------------|--------------------------------|
E|--------------------------------|--------------------------------|
http://classicalguitartablature.blogspot.com/
0 com

Without You

Classic Air Supply's hit fingerstyle chord melody guitar arrangement played in the key of C.

http://classicalguitartablature.blogspot.com/
Without You played in the key of C.
http://classicalguitartablature.blogspot.com/
E|------------------------ 3------|------------------------ 3---- 5|
B| 8---- 8-------- 6---- 5 5----10|--1010---- 8 8-- 5---- 5------ 5|
G| 7---- 6-------- 5---- 4------ 9|---- 7---- 7 5-- 5-- 5 5---- 5 4|
D|---- 6------ 8---- 3-- 3------10|--10 9-- 9-- 5---- 5-- 3-- 3----|
A| 7------ 6------ 5---- 4--------|--------------------------------|
E|--------------------------------| 8---- 7------ 5------ 4------ 3|
http://classicalguitartablature.blogspot.com/
E|-- 5 5--------------------------| 3-------------- 0--------------|
B|-- 5 8-- 8---- 8 5------ 5-- 8--| 6-- 6-- 6-- 5-- 3-- 3-- 3-- 1--|
G|-- 4 5------ 5 7------ 7 6------| 5---- 5 3------ 2---- 2 2------|
D|---------- 7-------- 5---- 5-- 5|-- 3------ 5-- 5-- 3------ 3----|
A|------ 8------ 7-------- 6------| 5------ 4------ 3------ 2------|
E|--------------------------------|--------------------------------|
http://classicalguitartablature.blogspot.com/
E|-------------------- 0-- 0------|------------ 5-- 5-- 8-- 8-- 5--|
B| 5---- 5---------- 1-- 1 3-- 3--| 1-- 5-- 5-- 5-- 5-- 8-- 5-- 5--|
G| 4-- 4---- 4-- 4-- 2---- 2---- 2| 2-- 6-- 4---- 3 2-- 7-- 5-- 5--|
D|-- 3------ 2------ 2------ 0----| 2-- 5---- 6------ 2-- 7-- 5----|
A|--------------------------------|---- 6-- 5-- 4-- 3--------------|
E| 5---- 4-------- 2------ 1---- 0|-------------------- 7-- 5-- 3--|
http://classicalguitartablature.blogspot.com/
E| 5---- 5------ 5------ 5-- 8----|--------------------------------|
B| 5-- 5------ 5------ 5-- 6--11--| 8--------10-------- 5-- 3------|
G|-- 5------ 5------ 5---- 5--10--| 7---- 7---- 9------ 5-- 5-- 5--|
D|-------------------------- 7-- 8|---- 7-------- 9-- 5------ 3-- 3|
A|------------------------ 5------|--------------------------------|
E| 2------ 1------ 0---------- 9--| 8------ 7---- 5-------- 4------|
http://classicalguitartablature.blogspot.com/
E|-------------------------- 3----|------------------------ 3---- 5|
B| 3------------ 3------ 5-- 4--10|--1010---- 8 8-- 5---- 5------ 5|
G| 2---- 2---- 2-- 5-- 6 5-- 4-- 9|---- 7---- 7 5-- 5-- 5 5---- 5 4|
D|---- 3---- 3------ 5-- 5 3----10|--10 9-- 9-- 5---- 5-- 3-- 3----|
A|---------------- 7-- 6-- 5 4----|--------------------------------|
E| 3------ 1----------------------| 8---- 7------ 5------ 4------ 3|
http://classicalguitartablature.blogspot.com/
E|-- 5 5--------------------------| 3-------------- 0--------------|
B|-- 5 8-- 8---- 8 5------ 5-- 8--| 6-- 6-- 6-- 5-- 3-- 3-- 3-- 1--|
G|-- 4 5------ 5 7------ 7 6------| 5---- 5 3------ 2---- 2 2------|
D|---------- 7-------- 5---- 5-- 5|-- 3------ 5-- 5-- 3------ 3----|
A|------ 8------ 7-------- 6------| 5------ 4------ 3------ 2------|
E|--------------------------------|--------------------------------|
http://classicalguitartablature.blogspot.com/
E|-------------------- 0-- 0------|------------ 5-- 5-- 8-- 8-- 5--|
B| 5---- 5---------- 1-- 1 3-- 3--| 1-- 5-- 5-- 5-- 5-- 8-- 5-- 5--|
G| 4-- 4---- 4-- 4-- 2---- 2---- 2| 2-- 6-- 4---- 3 2-- 7-- 5-- 5--|
D|-- 3------ 2------ 2------ 0----| 2-- 5---- 6------ 2-- 7-- 5----|
A|--------------------------------|---- 6-- 5-- 4-- 3--------------|
E| 5---- 4-------- 2------ 1---- 0|-------------------- 7-- 5-- 3--|
http://classicalguitartablature.blogspot.com/
E| 5---- 5------ 5------ 5-- 8----|--------------------------------|
B| 5-- 5------ 5------ 5-- 6--11--| 8--------10-------- 5-- 3------|
G|-- 5------ 5------ 5---- 5--10--| 7---- 7---- 9------ 5-- 5-- 5--|
D|-------------------------- 7-- 8|---- 7-------- 9-- 5------ 3-- 3|
A|------------------------ 5------|--------------------------------|
E| 2------ 1------ 0---------- 9--| 8------ 7---- 5-------- 4------|
http://classicalguitartablature.blogspot.com/
E|--------------------------------|--------------------------------|
B| 3------------ 3------------ 3--| 5------------ 5------------ 3--|
G| 2---- 2---- 2-- 5-- 6-- 5-- 4--| 4---- 4---- 4---- 5------ 5-- 5|
D|---- 3---- 3------ 5-- 5-- 3-- 3|---- 5---- 5------ 5-- 5-- 3----|
A|---------------- 7-- 6-- 5-- 4--| 3------ 2----------------------|
E| 3------ 1----------------------|---------------- 5---- 4--------|
http://classicalguitartablature.blogspot.com/
E|--------------------------------|--------------------------------|
B| 3 1 1-- 1-- 3---- 1------ 5-- 6|-------------- 6 3------------ 3|
G| 2---- 2 2---------- 2-------- 6|------ 5---- 3-- 2---- 2---- 2--|
D| 2-------- 2-- 2------ 2 5------|-- 3------ 5-------- 3---- 3----|
A|---------------------- 6------ 5|-------- 4------ 3------ 2------|
E| 3------ 2---- 0----------------|------------------------------ 6|
http://classicalguitartablature.blogspot.com/
E|----------------------------12--|12--12----------------------10--|
B|---- 5-- 3-- 6--------------12--|12--12-------------- 8-- 8------|
G| 5-- 5-- 5-- 5-- 0-- 0-- 5--10--|--12-------- 5------ 7---- 7-- 9|
D|-- 6-- 3-- 3-- 3 0-- 0-- 7---- 9|---------- 7-------- 7----------|
A|------------------------ 5------|-------- 5------ 7------ 8----10|
E|---- 5-- 4-- 3-- 1-- 0------ 9--| 8------------------------------|
http://classicalguitartablature.blogspot.com/
E|10 8------10---- 8----------12--|15--13--------------------12----|
B| 8----10-------- 8--10----10----|10------------------------10----|
G|--------12------ 7---- 7-- 9----|--10--10 6---- 6---- 7-------- 9|
D|--------10----10----------11--11|---------- 8------ 7----10------|
A|--------12----------------------|-------- 7---- 8------ 9--------|
E|-------------- 7-------- 9------|10------------------------------|
http://classicalguitartablature.blogspot.com/
E|1312----10--13------------12----|12------------------------------|
B|1010----10----------------15----|12----12 8---------- 8---- 8----|
G|10------10------------12--12----|--12---- 8-- 8------ 7---- 6----|
D|--10--10--10--10--12------------|---------- 7------ 6-------- 5--|
A|10------12------13------14------|--------------------------------|
E|--------------------------------| 8------ 7------ 6------ 5------|
http://classicalguitartablature.blogspot.com/
E|--------------------------------|--------------------------------|
B| 6-------- 4---- 3--------------|--------------------------------|
G| 5-- 5---- 4---- 4--------------|--------------------------------|
D|-- 4-- 3---- 3-- 2--------------|--------------------------------|
A|-------------- 3----------------|--------------------------------|
E| 4------ 3----------------------|--------------------------------|
http://classicalguitartablature.blogspot.com/