To celebrate the anniversary, I am giving you (finally...) : iPhone LickByNeck !!!!!!

Africa

Classic Toto's hit fingerstyle solo guitar arrangement played in the key of A.


http://classicalguitartablature.blogspot.com/
Africa played in the key of A.
http://classicalguitartablature.blogspot.com/
E|----------------|----------------|
B| 2-- 2---- 2 2 2|-- 4-- 5---- 7 5|
G| 2-- 2-- 2-- 2--| 2 4-- 4------ 6|
D| 2-- 2---- 2 2 2|-- 4-- 6--------|
A|----------------|------ 4--------|
E| 5---- 5-- 5 5--| 5 4------------|
http://classicalguitartablature.blogspot.com/
E|----------------|----------------|
B|-- 5-- 7-- 5-- 5| 7 5------ 7 5--|
G|---- 6 4---- 6--|---- 6 4 6------|
D|------ 6--------|----------------|
A|----------------|----------------|
E|----------------|----------------|
http://classicalguitartablature.blogspot.com/
E|----------------|----------------|
B| 2---- 2-- 2 2 2|-- 4-- 5---- 7 5|
G| 2---- 2-- 2 2 2|-- 4-- 4------ 6|
D| 2---- 2-- 2 2 2|---- 4 6--------|
A|----------------|------ 4--------|
E| 5---- 5-- 5-- 5|---- 4----------|
http://classicalguitartablature.blogspot.com/
E|----------------|----------------|
B|-- 5-- 7-- 5-- 5| 7 5------ 7 5--|
G|---- 6 4---- 6--|---- 6 4 6------|
D|------ 6--------|----------------|
A|----------------|----------------|
E|----------------|----------------|
http://classicalguitartablature.blogspot.com/
E|----------------|----------------|
B| 2---- 2-- 2 2 2|-- 4-- 5---- 7 5|
G| 2---- 2-- 2 2 2|-- 4-- 4------ 6|
D| 2---- 2-- 2 2 2|---- 4 6--------|
A|----------------|------ 4--------|
E| 5---- 5-- 5-- 5|---- 4----------|
http://classicalguitartablature.blogspot.com/
E|----------------|----------------|
B|-- 5-- 7-- 5-- 5| 7 5------ 7 5--|
G|---- 6 4---- 6--|---- 6 4 6------|
D|------ 6--------|----------------|
A|----------------|----------------|
E|----------------|----------------|
http://classicalguitartablature.blogspot.com/
E|----------------|----------------|
B| 2---- 2-- 2 2 2|-- 4-- 5---- 7 5|
G| 2---- 2-- 2 2 2|-- 4-- 4------ 6|
D| 2---- 2-- 2 2 2|---- 4 6--------|
A|----------------|------ 4--------|
E| 5---- 5-- 5-- 5|---- 4----------|
http://classicalguitartablature.blogspot.com/
E|----------------|----------------|
B|-- 5-- 7-- 5-- 5| 7 5------ 7 5--|
G|---- 6 4---- 6--|---- 6 4 6------|
D|------ 6--------|----------------|
A|----------------|----------------|
E|----------------|----------------|
http://classicalguitartablature.blogspot.com/
E|----------------|------------ 6--|
B|---- 7 7 7------| 7 7---- 9------|
G|---- 4 4--------| 6 6---- 6------|
D|-- 4-- 4------ 4| 8 8---- 8------|
A|----------------| 6-- 6-- 6------|
E| 7---- 7 7------|----------------|
http://classicalguitartablature.blogspot.com/
E| 7--------------|------------ 2 2|
B| 4---- 4------ 4|------ 5---- 5 2|
G| 4---- 4---- 4--| 4---- 4---- 4--|
D|------ 4------ 4| 4------ 4------|
A|----------------|----------------|
E| 4---- 4 4------| 2-- 2-- 2------|
http://classicalguitartablature.blogspot.com/
E|----------------|----------------|
B|-- 5---- 5-- 4--| 2------ 2-- 0 4|
G| 2 2---- 2-- 2--| 1------ 1-- 1--|
D|---- 2-- 2-- 2--| 2------ 2-- 2--|
A|----------------|----------------|
E| 0---- 0 0------| 2-- 2-- 2------|
http://classicalguitartablature.blogspot.com/
E|----------------|----------------|
B|-------- 4------| 2---- 2-- 2 2 2|
G| 4-------- 6 4--| 2---- 2-- 2 2 2|
D| 4-------- 4 4--| 2---- 2-- 2 2 2|
A|----------------|----------------|
E| 4-- 4-- 4------| 5---- 5-- 5-- 5|
http://classicalguitartablature.blogspot.com/
E|----------------|----------------|
B|-- 4-- 5--------|---- 7 7 7------|
G|-- 4-- 4--------|---- 4 4--------|
D|---- 4 6--------|-- 4-- 4------ 4|
A|------ 4--------|----------------|
E|---- 4----------| 7---- 7 7------|
http://classicalguitartablature.blogspot.com/
E|------------ 6--| 7--------------|
B| 7 7---- 9------| 4---- 4------ 4|
G| 6 6---- 6------| 4---- 4---- 4--|
D| 8 8---- 8------|------ 4------ 4|
A| 6-- 6-- 6------|----------------|
E|----------------| 4---- 4 4------|
http://classicalguitartablature.blogspot.com/
E|------------ 2 2|----------------|
B|------ 5---- 5 2|-- 5---- 5-- 4--|
G| 4---- 4---- 4--| 2 2---- 2-- 2--|
D| 4------ 4------|---- 2-- 2-- 2--|
A|----------------|----------------|
E| 2-- 2-- 2------| 0---- 0 0------|
http://classicalguitartablature.blogspot.com/
E|----------------|----------------|
B| 2------ 2-- 0 4|-------- 4------|
G| 1------ 1-- 1--| 4-------- 6 4--|
D| 2------ 2-- 2--| 4-------- 4 4--|
A|----------------|----------------|
E| 2-- 2-- 2------| 4-- 4-- 4------|
http://classicalguitartablature.blogspot.com/
E|----------------|----------------|
B| 2---- 2-- 2 2 2|-- 4-- 5--------|
G| 2---- 2-- 2 2 2|-- 4-- 4--------|
D| 2---- 2-- 2 2 2|---- 4 6--------|
A|----------------|------ 4--------|
E| 5---- 5-- 5-- 5|---- 4----------|
http://classicalguitartablature.blogspot.com/
E|----------------|------------ 6--|
B|---- 7 7 7------| 7 7---- 9------|
G|---- 4 4--------| 6 6---- 6------|
D|-- 4-- 4------ 4| 8 8---- 8------|
A|----------------| 6-- 6-- 6------|
E| 7---- 7 7------|----------------|
http://classicalguitartablature.blogspot.com/
E| 7--------------|------------ 2 2|
B| 4---- 4------ 4|------ 5---- 5 2|
G| 4---- 4---- 4--| 4---- 4---- 4--|
D|------ 4------ 4| 4------ 4------|
A|----------------|----------------|
E| 4---- 4 4------| 2-- 2-- 2------|
http://classicalguitartablature.blogspot.com/
E|----------------|----------------|
B|-- 5---- 5-- 4--| 2------ 2-- 0 4|
G| 2 2---- 2-- 2--| 1------ 1-- 1--|
D|---- 2-- 2-- 2--| 2------ 2-- 2--|
A|----------------|----------------|
E| 0---- 0 0------| 2-- 2-- 2------|
http://classicalguitartablature.blogspot.com/
E|----------------|----------------|
B|-------- 4------| 2---- 2-- 2 2 2|
G| 4-------- 6 4--| 2---- 2-- 2 2 2|
D| 4-------- 4 4--| 2---- 2-- 2 2 2|
A|----------------|----------------|
E| 4-- 4-- 4------| 5---- 5-- 5-- 5|
http://classicalguitartablature.blogspot.com/
E|----------------|----------------|
B|-- 4-- 5--------|---- 7 7 7------|
G|-- 4-- 4--------|---- 4 4------11|
D|---- 4 6--------|-- 4-- 4------ 4|
A|------ 4--------|----------------|
E|---- 4----------| 7---- 7 7----11|
http://classicalguitartablature.blogspot.com/
E|------11--------| 7--------------|
B|------11--14----| 4---- 4--------|
G|--111111--------| 4---- 4---- 4--|
D|----11----11----|------ 4------ 4|
A|----------------|----------------|
E|----1111--------| 4---- 4 4------|
http://classicalguitartablature.blogspot.com/
E|11--11--12--1414|--1212----1112--|
B|12--12--12--1214|----14------14--|
G|11------11----13|----13------13--|
D|----------------|----------------|
A|11----1111------| 0---- 0-- 0 0 0|
E|----------------|----------------|
http://classicalguitartablature.blogspot.com/
E|-------------- 4|-------- 4---- 4|
B|-- 4-- 5--------|-------- 5---- 5|
G|-- 4-- 4------ 4|-------- 4------|
D|-- 4-- 6------ 6|----------------|
A|-------- 4------|----------------|
E|-- 4------------|----------------|
http://classicalguitartablature.blogspot.com/
E|-------- 4------|-- 5 5-- 5-- 5 5|
B|-------- 5------|-- 2-- 2---- 2 7|
G| 4---- 4 4------|-------- 2-- 2 6|
D| 6------ 6------|----------------|
A|----------------|-------------- 5|
E|----------------| 2-- 2-- 2------|
http://classicalguitartablature.blogspot.com/
E|---- 5-- 5-- 5--| 5--------------|
B|---- 7-- 7-- 7--| 5------ 5-- 9--|
G|-------- 6------| 6------ 6------|
D|----------------|-------- 7------|
A|------ 5 5------|----------------|
E|----------------| 5---- 5 5------|
http://classicalguitartablature.blogspot.com/
E|----------------|----------------|
B| 9----10---- 9--|-- 2 2-- 2---- 3|
G| 9---- 9---- 9--|-- 2-- 2---- 2 2|
D| 9---- 9---- 9--|-- 2 2 2---- 2 4|
A|----------------|----------------|
E| 0-- 0 0--------| 2---- 2 2------|
http://classicalguitartablature.blogspot.com/
E|----------------|-------------- 0|
B|---- 3 3-- 2-- 2|-- 2-- 2-- 5-- 0|
G|---- 2 2-- 2-- 2|-- 2-- 2-- 2-- 1|
D|---- 4 4-- 4-- 2|-- 2-- 2-- 2-- 2|
A| 5-- 5 5------ 0|---- 0----------|
E|----------------|-------------- 0|
http://classicalguitartablature.blogspot.com/
E|----------------|----------------|
B|----------------|-------------- 7|
G|---- 2---- 1----|---- 2-- 2-- 2--|
D|----------------|---- 2-- 2-- 2--|
A|----------------|----------------|
E|---- 0 0--------| 2---- 2 2------|
http://classicalguitartablature.blogspot.com/
E|----------------|----------------|
B|---- 7-- 7-- 5--| 5------ 5 3 2 0|
G| 6-- 6-- 6-- 6--| 2------ 2 2 2--|
D| 7-- 7-- 7-- 7--| 2------ 2 2 2--|
A| 5---- 5--------| 0---- 0 0------|
E|----------------|----------------|
http://classicalguitartablature.blogspot.com/
E|----------------|-- 5 5-- 5-- 5 5|
B|----------------|-- 2-- 2---- 2 7|
G| 1---- 2---- 1--|-------- 2-- 2 6|
D| 2---- 2---- 2--|----------------|
A|----------------|-------------- 5|
E| 0---- 0 0------| 2-- 2-- 2------|
http://classicalguitartablature.blogspot.com/
E|---- 5-- 5-- 5--| 5--------------|
B|---- 7-- 7-- 7--| 5------ 5-- 9--|
G|-------- 6------| 6------ 6------|
D|----------------|-------- 7------|
A|------ 5 5------|----------------|
E|----------------| 5---- 5 5------|
http://classicalguitartablature.blogspot.com/
E| 4------ 4------| 4-------- 5 4--|
B| 5---- 5-- 7 5--| 5---- 5-- 5 5--|
G| 4------ 4 4 4--| 4-------- 4 4--|
D|---------- 6 6--|----------------|
A| 4-- 4-- 4------|----------------|
E|----------------| 0-- 0-- 0------|
http://classicalguitartablature.blogspot.com/
E| 2------ 2------|----------------|
B| 2-------- 5----| 2---- 2-- 2 2 2|
G| 2------ 2 4----| 2---- 2-- 2 2 2|
D|---------- 2----| 2---- 2-- 2 2 2|
A|----------------|----------------|
E| 2------ 2 4----| 5---- 5-- 5-- 5|
http://classicalguitartablature.blogspot.com/
E|----------------|----------------|
B|-- 4-- 5---- 7 5|-- 5-- 7-- 5-- 5|
G|-- 4-- 4------ 6|---- 6 4---- 6--|
D|---- 4 6--------|------ 6--------|
A|------ 4--------|----------------|
E|---- 4----------|----------------|
http://classicalguitartablature.blogspot.com/
E|----------------|----------------|
B| 7 5------ 7 5--| 2---- 2-- 2 2 2|
G|---- 6 4 6------| 2---- 2-- 2 2 2|
D|----------------| 2---- 2-- 2 2 2|
A|----------------|----------------|
E|----------------| 5---- 5-- 5-- 5|
http://classicalguitartablature.blogspot.com/
E|----------------|----------------|
B|-- 4-- 5---- 7 5|-- 5-- 7-- 5-- 5|
G|-- 4-- 4------ 6|---- 6 4---- 6--|
D|---- 4 6--------|------ 6--------|
A|------ 4--------|----------------|
E|---- 4----------|----------------|
http://classicalguitartablature.blogspot.com/
E|----------------|11-- 9 7-- 7-- 7|
B| 7 5------ 7 5--|-- 7 7 7---- 9--|
G|---- 6 4 6------|------ 8 8------|
D|----------------|----------------|
A|----------------|----------------|
E|-------------- 7|------ 7 7------|
http://classicalguitartablature.blogspot.com/
E|----------------|----------------|
B| 9 7-- 7-- 7----| 4 2-- 2 0-- 0--|
G| 6 6 6 6 8-- 8--| 4-- 4 4-- 1----|
D| 8-- 8 8------ 6|------ 4--------|
A| 6---- 6 6------|----------------|
E|----------------| 4---- 4 4------|
http://classicalguitartablature.blogspot.com/
E|----------------|----1211 9------|
B|------ 2--------|--14------1210 9|
G|------ 1 1------|--14------------|
D|------ 2 2------|--14------------|
A|----------------|-------------- 9|
E| 2---- 2 2---- 0|------ 0 0------|
http://classicalguitartablature.blogspot.com/
E|----------------|------ 7--------|
B|----12----10 9 4|---------- 7----|
G|--11------------|-- 6 4------ 6 4|
D|----------------|----------------|
A|---- 9 9--------|----------------|
E|-------------- 4|---- 4 4--------|
http://classicalguitartablature.blogspot.com/
E|----------------|----------------|
B| 2---- 2-- 2 2 2|-- 4-- 5------ 4|
G| 2---- 2-- 2 2 2|-- 4-- 4------ 6|
D| 2---- 2-- 2 2 2|---- 4 6------ 4|
A|----------------|------ 4--------|
E| 5---- 5-- 5-- 5|---- 4-------- 7|
http://classicalguitartablature.blogspot.com/
E|----------------|------11-- 9 7--|
B|---- 4-- 4 7 4 7| 9 7-- 7-- 7-- 4|
G| 4 6 6 6------ 6|-- 6-- 6-- 6-- 4|
D| 4 4 4 4--------| 8-- 8----------|
A|-------------- 6|------ 6 6------|
E|------ 7--------|----------------|
http://classicalguitartablature.blogspot.com/
E|----------------|11--11--12--1414|
B|----------------|12--12--12--1214|
G|-- 4------ 4----|11------11----13|
D|-- 4------ 4----|----------------|
A|----------------|11----1111------|
E| 4---- 4 4------|----------------|
http://classicalguitartablature.blogspot.com/
E|--1212----1112--|-------------- 4|
B|----14------14--|-- 4-- 5--------|
G|----13------13--|-- 4-- 4------ 4|
D|----------------|-- 4-- 6------ 6|
A| 0---- 0-- 0 0 0|-------- 4------|
E|----------------|-- 4------------|
http://classicalguitartablature.blogspot.com/
E|-------- 4---- 4|-------- 4------|
B|-------- 5---- 5|-------- 5------|
G|-------- 4------| 4---- 4 4------|
D|----------------| 6------ 6------|
A|----------------|----------------|
E|----------------|----------------|
http://classicalguitartablature.blogspot.com/
E|-- 5 5-- 5-- 5 5|---- 5-- 5-- 5--|
B|-- 2-- 2---- 2 7|---- 7-- 7-- 7--|
G|-------- 2-- 2 6|-------- 6------|
D|----------------|----------------|
A|-------------- 5|------ 5 5------|
E| 2-- 2-- 2------|----------------|
http://classicalguitartablature.blogspot.com/
E| 5--------------|----------------|
B| 5------ 5-- 9--| 9----10---- 9--|
G| 6------ 6------| 9---- 9---- 9--|
D|-------- 7------| 9---- 9---- 9--|
A|----------------|----------------|
E| 5---- 5 5------| 0-- 0 0--------|
http://classicalguitartablature.blogspot.com/
E|----------------|----------------|
B|-- 2 2-- 2---- 3|---- 3 3-- 2-- 2|
G|-- 2-- 2---- 2 2|---- 2 2-- 2-- 2|
D|-- 2 2 2---- 2 4|---- 4 4-- 4-- 2|
A|----------------| 5-- 5 5------ 0|
E| 2---- 2 2------|----------------|
http://classicalguitartablature.blogspot.com/
E|-------------- 0|----------------|
B|-- 2-- 2-- 5-- 0|----------------|
G|-- 2-- 2-- 2-- 1|---- 2---- 1----|
D|-- 2-- 2-- 2-- 2|----------------|
A|---- 0----------|----------------|
E|-------------- 0|---- 0 0--------|
http://classicalguitartablature.blogspot.com/
E|----------------|----------------|
B|-------------- 7|---- 7-- 7-- 5--|
G|---- 2-- 2-- 2--| 6-- 6-- 6-- 6--|
D|---- 2-- 2-- 2--| 7-- 7-- 7-- 7--|
A|----------------| 5---- 5--------|
E| 2---- 2 2------|----------------|
http://classicalguitartablature.blogspot.com/
E|----------------|----------------|
B| 5------ 5 3 2 0|----------------|
G| 2------ 2 2 2--| 1---- 2---- 1--|
D| 2------ 2 2 2--| 2---- 2---- 2--|
A| 0---- 0 0------|----------------|
E|----------------| 0---- 0 0------|
http://classicalguitartablature.blogspot.com/
E|-- 5 5 5---- 5 5|---- 5-- 5-- 5--|
B|-- 2-- 2---- 2 7|---- 7-- 7-- 7--|
G|-------- 2-- 2 6|-------- 6------|
D|----------------|----------------|
A|-------------- 5|------ 5 5------|
E| 2-- 2-- 2------|----------------|
http://classicalguitartablature.blogspot.com/
E| 5--------------| 4------ 4------|
B| 5------ 5-- 9--| 5---- 5-- 7 5--|
G| 6------ 6------| 4------ 4 4 4--|
D|-------- 7------|---------- 6 6--|
A|----------------| 4-- 4-- 4------|
E| 5---- 5 5------|----------------|
http://classicalguitartablature.blogspot.com/
E| 4-------- 5 4--| 2------ 2------|
B| 5---- 5-- 5 5--| 2-------- 5----|
G| 4-------- 4 4--| 2------ 2 4----|
D|----------------|---------- 2----|
A|----------------|----------------|
E| 0-- 0-- 0------| 2------ 2 4----|
http://classicalguitartablature.blogspot.com/
E|----------------|----------------|
B| 2---- 2-- 2 2 2|-- 4-- 5---- 7 5|
G| 2---- 2-- 2 2 2|-- 4-- 4------ 6|
D| 2---- 2-- 2 2 2|---- 4 6--------|
A|----------------|------ 4--------|
E| 5---- 5-- 5-- 5|---- 4----------|
http://classicalguitartablature.blogspot.com/
E|----------------|----------------|
B|-- 5-- 7-- 5-- 5| 7 5------ 7 5--|
G|---- 6 4---- 6--|---- 6 4 6------|
D|------ 6--------|----------------|
A|----------------|----------------|
E|----------------|----------------|
http://classicalguitartablature.blogspot.com/
E|----------------|----------------|
B| 2---- 2-- 2 2 2|-- 4-- 5---- 7 5|
G| 2---- 2-- 2 2 2|-- 4-- 4------ 6|
D| 2---- 2-- 2 2 2|---- 4 6--------|
A|----------------|------ 4--------|
E| 5---- 5-- 5-- 5|---- 4----------|
http://classicalguitartablature.blogspot.com/
E|----------------|----------------|
B|-- 5-- 7-- 5-- 5| 7 5------ 7 5--|
G|---- 6 4---- 6--|---- 6 4 6------|
D|------ 6--------|----------------|
A|----------------|----------------|
E|----------------|----------------|
http://classicalguitartablature.blogspot.com/
E|----------------|----------------|
B| 2---- 2-- 2 2 2|-- 4---------- 5|
G| 2---- 2-- 2 2 2|-- 4---------- 4|
D| 2---- 2-- 2 2 2|---- 4----------|
A|----------------|----------------|
E| 5---- 5-- 5-- 5|---- 4----------|
http://classicalguitartablature.blogspot.com/
E|----------------|----------------|
B|----------------|----------------|
G|----------------|----------------|
D| 6--------------|----------------|
A| 4--------------|----------------|
E|----------------|----------------|
http://classicalguitartablature.blogspot.com/

0 ความคิดเห็น:

แสดงความคิดเห็น