To celebrate the anniversary, I am giving you (finally...) : iPhone LickByNeck !!!!!!

Against All Odds / Take A Look At Me Now

Phil Collin's hit fingerstyle chord melody guitar arrangement played in the key of F.
http://classicalguitartablature.blogspot.com/

http://classicalguitartablature.blogspot.com/
Against All Odds played in the key of F.
http://classicalguitartablature.blogspot.com/
E|----------------10 8------------|--------------------------------|
B|------11--10---- 8-- 8----------|------------------------------ 3|
G|----10---------- 9---- 9--------|------ 3-- 2---- 0--------------|
D|--12----------------------------|-- 0------------ 3------ 2------|
A|10------------------------------|---------------- 3--------------|
E|---------------- 8------------ 3|--------------------------------|
http://classicalguitartablature.blogspot.com/
E|------------------ 0-------- 3--| 5------------ 3----------------|
B|-- 3 3 3 3 1-- 3-- 3-- 5-- 5----| 8 8 8-- 8 8-- 6------ 6---- 810|
G| 5 5 5 5 2 2-- 0-- 0-- 4---- 4 4| 5 5-- 5 5 5-- 5---- 5------ 8--|
D| 3 3 3 3 3 3-- 0------ 5-- 5----|-- 7-- 7 5 5------ 3-------- 7 7|
A| 5------ 3---- 2----------------| 8------ 7------ 5------ 3------|
E|------------------------ 3------|---------------------------- 7--|
http://classicalguitartablature.blogspot.com/
E| 6-- 5------------ 5------------|------------------------------ 5|
B| 6-- 6-- 8 6---- 8 6---- 1------| 1 1-- 1 1-- 8 6-- 5 3---- 3 8 4|
G|-- 5-- 5 7 5---- 5 5---- 0---- 2| 2 2-- 2 2-- 6 5-- 3 2-- 2-- 5 2|
D|-------- 8 5---- 5-------- 2-- 2| 2 2-- 2---- 8-- 3 5-- 3---- 7--|
A|---- 5-- 8 5------ 5------------| 0-------- 6---- 5 4 3----------|
E| 6-------- 5---- 6------ 0-- 3--|-- 3---- 0------------------ 5 2|
http://classicalguitartablature.blogspot.com/
E| 6 6 3---------- 1 1------------|--------------------------------|
B| 3 3 3---- 3-- 3 3 3-- 3------ 3| 1---- 1------ 5----------------|
G| 3 3 3-- 3---- 3 3 3-- 3-- 3-- 4| 3-- 3------ 5-- 5-- 3-- 5-- 6--|
D|------ 3------ 1------ 5-- 3-- 3|-- 3------ 5------ 3-- 2-- 8 5--|
A|---------------------- 7-- 5-- 4| 3---------------------- 7-- 6 5|
E| 3---------- 2-- 1--------------|-------- 6------ 5-- 3----------|
http://classicalguitartablature.blogspot.com/
E|------------------ 0-------- 3--| 5------------ 3----------------|
B| 3 3-- 3 3 1-- 3-- 3-- 5-- 5----| 8 8 8-- 8 8-- 6------ 6---- 810|
G| 5 5-- 5 2 2-- 0-- 0-- 4---- 4 4| 5 5-- 5 5 5-- 5---- 5------ 8--|
D| 3 3---- 3 3-- 0------ 5-- 5----|-- 7-- 7 5 5------ 3-------- 7 7|
A|-------- 3---- 2----------------| 8------ 7------ 5------ 3------|
E|------------------------ 3------|---------------------------- 7--|
http://classicalguitartablature.blogspot.com/
E| 6-- 5------------ 5------------|------------------------------ 5|
B| 6-- 6-- 8 6---- 8 6---- 1------| 1 1-- 1 1-- 8 6-- 5 3---- 3 8 4|
G|-- 5-- 5 7 5---- 5 5---- 0---- 2| 2 2-- 2 2-- 6 5-- 3 2-- 2-- 5 2|
D|-------- 8 5---- 5-------- 2-- 2| 2 2-- 2---- 8-- 3 5-- 3---- 7--|
A|---- 5-- 8 5------ 5------------| 0-------- 6---- 5 4 3----------|
E| 6-------- 5---- 6------ 0-- 3--|-- 3---- 0------------------ 5 2|
http://classicalguitartablature.blogspot.com/
E| 6 6 3---------- 1 1------------|-------------------- 5 8 5------|
B| 3 3 3---- 3-- 3 3 3-- 3------ 3| 1---- 1------ 5---- 3 6 6 8 6--|
G| 3 3 3-- 3---- 3 3 3-- 3-- 3-- 4| 3-- 3------ 5---- 5 3 5 5 7 7--|
D|------ 3------ 1------ 5-- 3-- 3|-- 3------ 5------ 3------ 8-- 7|
A|---------------------- 7-- 5-- 4| 3------------------------------|
E| 3---------- 2-- 1--------------|-------- 6------ 5-- 3 4 5 6-- 7|
http://classicalguitartablature.blogspot.com/
E|-- 5----------------------------| 5---- 3------------------------|
B| 6 6-- 6-------------- 6-- 6----| 6 8-- 6-- 6-- 3-------- 3 6----|
G| 5 5-- 5-- 5-- 5-- 5-- 7-- 7 7 7|------ 5-- 5-- 0-------- 3 6----|
D|------ 7-- 7-- 7-- 7---- 7 7 7--|---------- 3-- 3-- 3---- 5 5----|
A|--------------------------------|------------------------ 7 6----|
E| 8------ 8------ 8------ 8---- 7|-------- 5------ 3-- 1--------10|
http://classicalguitartablature.blogspot.com/
E|10---- 8-------- 6 5-------- 5 6|-- 5---------- 5-- 5 8 5-- 3 1--|
B|1013--11----1010 6 6 8 6-- 8 4 3| 6------ 8 6-- 3-- 5 6 3-- 5 3--|
G|1010------10 8 8 7 7 7 6-- 6 5 3| 5------ 7 7-- 5 5 5 6 3-- 3 2--|
D|--10------ 8 8 7---- 8 5-- 8----|-------- 8 7---- 3--------------|
A|-------------------- 7---- 6 5--|-------------- 3-- 7 6 5-- 4 2--|
E|-------- 9-- 8 7 6 7---- 5---- 3| 5------ 6 7--------------------|
http://classicalguitartablature.blogspot.com/
E|-- 5------------------10-- 8----| 5---- 3------------------------|
B| 6 6-- 6--------------10--------| 6 8-- 6-- 6-- 3-------- 3 6----|
G| 5 5-- 5-- 5-- 5-- 5--10----10 7|------ 5-- 5-- 0-------- 3 6----|
D|------ 7-- 7-- 7-- 7------------|---------- 3-- 3-- 3---- 5 5----|
A|--------------------------------|------------------------ 7 6----|
E| 8------ 8------ 8---- 8------ 7|-------- 5------ 3-- 1--------10|
http://classicalguitartablature.blogspot.com/
E|10---- 8-------- 6 5-------- 5 6|-- 5-------- 5-------- 3---- 3--|
B|1013--11----1010 6 6 8 6-- 8 4 3| 6------ 8 6-- 3---- 3---- 3-- 3|
G|1010------10 8 8 7 7 7 6-- 6 5 3| 5------ 7 7-- 3 3------ 3---- 3|
D|--10------ 8 8 7---- 8 5-- 8----|-------- 8 7--------------------|
A|-------------------- 7---- 6 5--|---------------- 3--------------|
E|-------- 9-- 8 7 6 7---- 5---- 3| 5------ 6 7--------------------|
http://classicalguitartablature.blogspot.com/
E|--------------------------------|10 8----------------------------|
B|----------------------1110------| 8-- 8--------------------------|
G|------------------10------------| 9---- 9-------------- 3-- 2----|
D|----------------12--------------|------------------ 0------------|
A|--------------10----------------|--------------------------------|
E|--------------------------------| 8------------ 3----------------|
http://classicalguitartablature.blogspot.com/
E|--------------------------------|10 8----------------------------|
B|----------------------11--10----| 8-- 8--------------------------|
G| 0----------------10------------| 9---- 9-------------- 3-- 2----|
D| 3------ 2--------12------------|---------------- 0 3------------|
A| 3------------10----------------|--------------------------------|
E|--------------------------------| 8------------ 3----------------|
http://classicalguitartablature.blogspot.com/
E|--------------------------------|--------------------------------|
B|---------------- 3--------------|--------------------------------|
G| 0-------------- 0--------------|--------------------------------|
D| 3------ 2------ 4--------------|--------------------------------|
A| 3------------ 5----------------|--------------------------------|
E|--------------------------------|--------------------------------|
http://classicalguitartablature.blogspot.com/

0 ความคิดเห็น:

แสดงความคิดเห็น