To celebrate the anniversary, I am giving you (finally...) : iPhone LickByNeck !!!!!!

Alfie

Classic Burt Bacharach's hit fingerstyle chord melody guitar arrangement played in the key of Am.

http://classicalguitartablature.blogspot.com/
Alfie played in the key of C.
Classical Guitar Tablature http://classicalguitartablature.blogspot.com/
E|--------------------------------|---- 8---------------------- 5--|
B| 8 6 5 6 8----------------------| 6-- 8------------------ 8------|
G| 5------ 5---------- 5------ 5--| 5-- 7------ 7------ 5-- 5------|
D| 5------ 5-- 5---------- 3------| 3---------- 7---------- 7------|
A|--------------------------------|-------- 8------ 7---- 5--------|
E| 8------ 6------ 5------ 4------| 3------------------------------|
Classical Guitar Tablature http://classicalguitartablature.blogspot.com/
E|------------ 7-- 5--------------|------------------------------12|
B| 8-------------- 5---------- 1--| 3------------------------ 8--10|
G|-------- 5---------- 4------ 0--| 0-- 0---- 4-- 6------ 9------10|
D|---- 5---------------------- 2 0|---------- 2------ 5-- 7--------|
A|--------------------------------|--------------------------------|
E| 8------ 7------ 5------ 3---- 0|------ 3------ 5------ 9------10|
Classical Guitar Tablature http://classicalguitartablature.blogspot.com/
E|------ 8----------10 8-- 7-- 8--|10------------------------------|
B|--13--11------10--1010-- 8-- 8--| 8-- 8-- 8----------------------|
G|------10------10--1010-- 8-- 8--| 7-- 7-- 7-- 4-- 6-- 7-- 9-- 9 7|
D|------------ 8-------- 7--------|---- 9-- 6-- 3-- 5-- 5-- 7-- 7--|
A|------------------------------ 7|------------------------------ 5|
E|------ 9------ 8------ 7--------|---- 7-- 6-- 4-- 5-- 7-- 8-- 9--|
Classical Guitar Tablature http://classicalguitartablature.blogspot.com/
E| 5---------------------- 5---- 5|--10------------------ 8------ 5|
B| 6------ 5------ 6 8---- 6---- 4|--12--12-------------- 7------ 3|
G|---- 7-- 5------ 5 7---- 5---- 2|--11--11------ 8------ 5-- 5-- 5|
D|------ 5-- 5-- 5-- 6------------|------10--10------ 7------------|
A|--------------------------------|--------------------------------|
E|------ 8------ 7---- 6 5---- 3 2|------11------ 8------ 5------ 3|
Classical Guitar Tablature http://classicalguitartablature.blogspot.com/
E|------ 0------------ 3----------|---------------- 5--------------|
B|-- 3---- 3------ 6------10------|--------10------ 4------------ 8|
G|-- 5-- 0-- 0---- 4------ 7------| 4------ 7------ 4-- 4---- 4-- 5|
D|-- 3------ 0-- 3-------- 9-- 9 3|---- 3-- 9-- 9-------------- 3 5|
A|-------------- 5----------------|------ 8------ 6------ 4--------|
E|------ 1-------------- 7------ 3|------------------------------ 8|
Classical Guitar Tablature http://classicalguitartablature.blogspot.com/
E|--------------------------------|---- 8---------------------- 5--|
B| 6 5 6-- 8----------------------| 6-- 8------------------ 8------|
G|-------- 5---------- 5------ 5--| 5-- 7------ 7------ 5-- 5------|
D|-------- 5-- 5------ 3-- 3------| 3---------- 7---------- 7------|
A|--------------------------------|-------- 8------ 7---- 5--------|
E|-------- 6------ 5------ 4------| 3------------------------------|
Classical Guitar Tablature http://classicalguitartablature.blogspot.com/
E|------------ 7-- 5--------------|------------------------------12|
B| 8-------------- 5---------- 1--| 3------------------------ 8--10|
G|-------- 5---------- 4------ 0--| 0-- 0---- 4-- 6------ 9------10|
D|---- 5---------------------- 2 0|---------- 2------ 5-- 7--------|
A|--------------------------------|--------------------------------|
E| 8------ 7------ 5------ 3---- 0|------ 3------ 5------ 9------10|
Classical Guitar Tablature http://classicalguitartablature.blogspot.com/
E|------ 8----------10 8-- 7-- 8--|10------------------------ 8----|
B|--13--11------10--1010-- 8-- 8--| 8-- 8-- 8----------------11----|
G|------10------10--1010-- 8-- 8--| 7-- 7-- 7-- 4-- 6 7-- 9--10-- 7|
D|------------ 8-------- 7--------|---- 9-- 6-- 3-- 5 5-- 7-- 8----|
A|------------------------------ 7|------------------------------ 5|
E|------ 9------ 8------ 7--------|---- 7-- 6-- 4-- 5 7-- 8-- 9----|
Classical Guitar Tablature http://classicalguitartablature.blogspot.com/
E| 5---------------------- 5------|--10---- 7---------------- 8----|
B| 6------ 5------ 6 8---- 6------|10------ 7--------------10------|
G|---- 7-- 5------ 5 7---- 5------| 9---- 5---- 5---- 5-- 8------ 7|
D|------ 5-- 5-- 5-- 6----------10|------------------ 7--10--------|
A|------------------------------ 9|------ 7------ 6----------------|
E|------ 8------ 7---- 6 5---- 3--|---------------------- 8------ 7|
Classical Guitar Tablature http://classicalguitartablature.blogspot.com/
E|10------------------------------|-------------------------- 710--|
B| 7--------12-- 7------ 8--------|---------------------- 8--1010--|
G|----------11-- 7------ 8--------| 8-------- 4-- 7-- 9-- 5-- 9 9--|
D|-- 7------ 9------ 7-- 9-- 9-- 8|-- 6-- 5-- 3-- 5-- 7-- 5---- 8--|
A|-------------- 9------10--------|---------------------- 7--10----|
E|------10---------------------- 8|-- 7-- 6-- 4-- 5-- 8---------- 8|
Classical Guitar Tablature http://classicalguitartablature.blogspot.com/
E|12-------------- 7--------------|------------------------------10|
B| 7----------12-- 7--------------|-------------------------- 3-- 7|
G| 7----------11-- 7--------10--12|---------- 9-- 7---------- 5-- 7|
D|---- 7------ 9------ 7----12----|--10------10------ 7------ 4----|
A|-------------- 9--------11----12|------10------ 9------ 5--------|
E| 7------10----------------------|------------------------------ 7|
Classical Guitar Tablature http://classicalguitartablature.blogspot.com/
E|--------------------------------|-------------------------- 7----|
B|----------12---- 7--10------ 8--|---------------------- 8--10----|
G|----------11---- 7--11------ 8--| 8----------10---- 9-- 9-- 9-- 7|
D|---- 7---- 9---- 7--12------ 9--| 8----------12--12 9--10--------|
A|-------------- 9------12----10--|--------10--11--1211--10---- 9 8|
E|--------10-------------------- 8|----11--------------------------|
Classical Guitar Tablature http://classicalguitartablature.blogspot.com/
E| 8---------- 7-- 8-------- 7----| 7-------- 5-- 6---------- 5----|
B| 8---------- 6-- 6-------- 6----| 6-------- 6-- 7------ 3-- 5-- 8|
G|-- 7-------- 5-- 6 6-------- 5--| 7-- 7---- 5-- 5------ 4-- 4-- 5|
D|--------------------------------|-------------- 4-- 4-- 3------ 5|
A|-------- 7------ 6------ 5------|------------------------ 4------|
E|--------------------------------| 7------ 5------ 4------------ 8|
Classical Guitar Tablature http://classicalguitartablature.blogspot.com/
E|--------------------------------|---- 8--------------------------|
B| 6 5 6-- 8----------------------| 6-- 8------ 8------ 8----------|
G|-------- 5---------- 5------ 5--| 5-- 7------ 7------10------10--|
D|-------- 5-- 5------ 3-- 3------| 3---------- 7------10------ 9--|
A|--------------------------------|-------- 8----------------------|
E|-------- 6------ 5------ 4------| 3--------------10---- 9--------|
Classical Guitar Tablature http://classicalguitartablature.blogspot.com/
E|-------- 7-- 8----------10 8----|--------------------10----------|
B|----10-- 7-- 7----------10------| 8------------------ 8--13------|
G|---- 9-- 5-- 5-- 7 5-- 8--------| 7---- 7---- 4------ 9--10------|
D|----10-------- 7----------------| 5---- 6---- 3--------12--------|
A| 9------ 6---- 6----------------| 7-------------- 0----11----10--|
E|---------------------- 8--------|---- 7-- 6-- 4------------------|
Classical Guitar Tablature http://classicalguitartablature.blogspot.com/
E|-------- 7-- 8----------10 8----|---------- 5---- 7 8----------10|
B|----10-- 7-- 7----------10------| 8-------- 8---- 5-- 5---- 6-- 9|
G|---- 9-- 5-- 5-- 7 5-- 8--------| 7-------- 7-- 5---- 5---- 6--10|
D|----10-------- 7----------------| 5-- 5-------------------- 6----|
A| 9------ 6---- 6-------------- 7|---------------------- 6--------|
E|---------------------- 8--------|-------- 6---- 5--------------10|
Classical Guitar Tablature http://classicalguitartablature.blogspot.com/
E|--------12----------------------| 5------ 0-------- 3------------|
B|-- 9---- 9----------------------| 3-- 3-- 3------ 6------10----10|
G|--10--10----10-- 7------ 5------| 5-- 5 0-------- 4------10---- 9|
D|--10---------------- 6------ 3--|---- 3------ 0 3------ 9-- 9--10|
A|--------------------------------|-------------- 5-------------- 9|
E|------ 8-------- 7------ 4---- 3|------ 1-------------- 9--------|
Classical Guitar Tablature http://classicalguitartablature.blogspot.com/
E|--10---- 7-------------- 8------| 5---------------- 3-- 5--------|
B|-------- 7--------------10--10--| 5---- 5------ 6-- 6-- 5---- 5--|
G|------ 5-- 5---- 5------ 8---- 7|---- 7 7------ 5-- 5-- 4---- 4--|
D|-------------------- 7------10--|-- 5-- 5-- 5-- 3------------ 3--|
A|------ 7------ 6----------------|---------------------------- 4 3|
E|---------------------- 8------ 7|------ 6------ 5-- 4---- 3------|
Classical Guitar Tablature http://classicalguitartablature.blogspot.com/
E| 5------------------------------|--------------------------------|
B| 2-- 8-- 8------ 2------ 2------|---------------- 5---- 6--------|
G| 3-- 6-- 6------ 3---------- 0--| 5------ 7------ 5---- 5------ 3|
D|---- 8-- 8-- 8------ 2-- 2-- 2--|---- 5------ 5------ 3---- 3----|
A|--------------------------------|--------------------------------|
E|-------- 6------ 3------ 0------| 8------ 7------ 5------ 4---- 3|
Classical Guitar Tablature http://classicalguitartablature.blogspot.com/
E| 5 3----------------------------|--------------------------------|
B| 5 5---- 8----------------------| 8------------------------------|
G|-- 3---- 6---------- 3-- 6-- 7--| 9------------------------------|
D|------ 8---- 8 5---- 5-- 5-- 5--| 9------------------------------|
A|-------------- 4----------------|--------------------------------|
E|------ 0-------------- 6---- 7 8|--------------------------------|
Classical Guitar Tablature http://classicalguitartablature.blogspot.com/
E|--------------------------------|--------------------------------|
B|--------------------------------|--------------------------------|
G|--------------------------------|--------------------------------|
D|--------------------------------|--------------------------------|
A|--------------------------------|--------------------------------|
E|--------------------------------|--------------------------------|

0 ความคิดเห็น:

แสดงความคิดเห็น