To celebrate the anniversary, I am giving you (finally...) : iPhone LickByNeck !!!!!!

Almost being in love

Crooner's favorite fingerstyle solo guitar arrangement played in the key of G
http://classicalguitartablature.blogspot.com/

http://classicalguitartablature.blogspot.com/
Almost Being In Love played in the key of G.
http://classicalguitartablature.blogspot.com/
E|---------------------------- 7--|-------- 7----------------------|
B|-------------- 8----10------ 8--|-------- 8------ 8---------- 7--|
G|---------------------------- 9--|---- 9-------------- 9------ 7--|
D|--------------------------------|---------------------------- 7--|
A|--------------------------------|---------------- 7--------------|
E|---------------------------- 8--|---------------------------- 8--|
http://classicalguitartablature.blogspot.com/
E|--------------------------------|--------------------------------|
B|------------ 7 7---- 8----10----|------10------ 7------------ 5--|
G|------ 7-------------------- 7--|------------------ 7-------- 7--|
D|---- 7-------------------- 7----|-- 7------------------------ 6--|
A|--------------------------------|---------------------------- 7--|
E|---------------------------- 7--|--------------------------------|
http://classicalguitartablature.blogspot.com/
E|--------------------------------|--------------------------------|
B|-------------- 5---- 7------ 8--|---- 8-------------- 7------ 8--|
G|------ 7-------------------- 5--|-------------- 9------------ 9--|
D|---- 6---------------------- 5--|-------------- 7------------10--|
A|-------------- 6----------------|--------------------------------|
E|---------------------------- 5--|-------- 7---- 8------------10--|
http://classicalguitartablature.blogspot.com/
E|--------------------------------|--------------------------------|
B|------ 8-------- 7-- 5------ 3--|---- 3-------------- 7----------|
G|-------- 9---- 5---- 5------ 4--|---- 4-------------- 7----------|
D|----10-------- 4------------ 4--|---- 4-------------- 5----------|
A|--------------------------------|------------------------ 5------|
E|---------------- 4---------- 3--|-------- 5---- 7-------------- 3|
http://classicalguitartablature.blogspot.com/
E|------------ 7------ 7-------- 7|-------- 7----------------------|
B|---- 3------ 6------ 6-------- 8|-------- 8------ 8---------- 7--|
G|---- 4------ 7-------- 7------ 9|------ 9-------------- 9---- 7--|
D|---- 4------ 6------------------|---------------------------- 7--|
A|--------------------------------|---------------- 7--------------|
E|------------------------------ 8|---------------------------- 8--|
http://classicalguitartablature.blogspot.com/
E|--------------------------------|--------------------------------|
B|-------------- 7---- 8------10--|------10------ 7------------ 5--|
G|------ 7-------------------- 7--|-------------------- 7------ 7--|
D|---- 7------ 7-------------- 7--|---- 7---------------------- 6--|
A|--------------------------------|---------------------------- 7--|
E|---------------------------- 7--|--------------------------------|
http://classicalguitartablature.blogspot.com/
E|--------------------------------|--------------------------------|
B|-------------- 5---- 7------ 8--|---- 8-------------- 7------ 8--|
G|------ 7-------------------- 5--|---- 5-------- 9-------------- 9|
D|---- 6------ 6-------------- 5--|---- 5-------- 9----------10----|
A|--------------------------------|--------------------------------|
E|---------------------------- 5--|------ 7------ 8----------10----|
http://classicalguitartablature.blogspot.com/
E|------------------------------ 3|---- 3--------------------------|
B|-------------- 5------ 7------ 3|------ 3------------ 7----------|
G|---- 9-------- 5------ 5------ 4|-------------------- 7----------|
D|-------------- 5------ 4--------|-------------------- 5----------|
A|-------------- 5----------------|---------------------- 5--------|
E|---------------------- 4------ 3|------ 5------ 7-------------- 3|
http://classicalguitartablature.blogspot.com/
E|---- 3--------------------------|--------------------------------|
B|---- 3---------- 8--10------12--|-------------- 7---- 9------10--|
G|---- 4--------------------------| 9-- 9-------- 9---- 9------ 8--|
D|----------------------------11--|----11-------- 7---- 7------ 7--|
A|---------------------------- 9--|--------------------------------|
E|--------------------------------|-------- 9---- 8------------ 7--|
http://classicalguitartablature.blogspot.com/
E|-------------- 9---- 7------ 7--|--------------------------------|
B|------10------ 9------------ 9--|---- 9-------------- 8----------|
G|-------------- 8------------ 8--|---- 8---------------- 8--------|
D|---- 7--------------------------|-------- 9---------- 7----------|
A|-------------- 8------------ 7--|--------------------------------|
E|--------------------------------|---------------- 7--------------|
http://classicalguitartablature.blogspot.com/
E|--------------------------------|---------------------------- 5--|
B|---- 7---------- 5-- 7------ 8--|-------- 8------ 5-- 8------ 5--|
G|------ 8---------------------- 7|-------- 7---- 7---- 7------ 6--|
D|---- 6---------------------- 5--|---- 5-------- 5---- 5----------|
A| 7-------------------------- 7--|--------------------------------|
E|--------------------------------|---------------- 7---------- 5--|
http://classicalguitartablature.blogspot.com/
E|---------------------- 5--------|--------------------------------|
B|---- 5------------------------12|--------12------------------10--|
G|---- 6--------------------------| 9------ 9---------- 9------ 8--|
D|------------ 5----------------11|----11-------------- 9------ 7--|
A|------------------------------ 9|--------------------------------|
E|-------------- 5----------------|---------------- 9---------- 7--|
http://classicalguitartablature.blogspot.com/
E|---- 7------------------------ 7|--------------------------------|
B|----10----------12----12------ 8|------ 8------ 8------------ 7--|
G|----------------10----10------ 9|------ 9------------ 9------ 7--|
D|----------------10---- 9--------|---------------------------- 7--|
A|--------------------------------|-------------- 7----------------|
E|----------------10------ 9---- 8|---------------------------- 8--|
http://classicalguitartablature.blogspot.com/
E|--------------------------------|--------------------------------|
B|-------------- 7---- 8------10--|------10------ 7------------ 5--|
G|------ 7---------------------- 7|-------- 7---------- 7------ 7--|
D|---- 7------ 7-------------- 7--|-- 7------------------------ 6--|
A|--------------------------------|---------------------------- 7--|
E|---------------------------- 7--|--------------------------------|
http://classicalguitartablature.blogspot.com/
E|--------------------------------|--------------------------------|
B|---------------- 5-- 7------ 8--|---- 5---------- 5-- 7------ 8--|
G|------ 7---------------------- 5|---- 5---------- 5------ 5---- 6|
D|---- 6---------------------- 5--|---- 5---------- 5-- 5------ 5--|
A|--------------------------------|---------------- 7--------------|
E|---------------------------- 5--|------------------------------ 6|
http://classicalguitartablature.blogspot.com/
E|--------------------------------|--------------------------------|
B|---------------- 5-- 7------ 8--|-------------------- 7------ 8--|
G|-------- 6-------------------- 9|---- 9-------- 9------------ 6--|
D|---- 5---------------------- 7--|------ 7-------------------- 5--|
A|--------------------------------|--------------------------------|
E|---------------------------- 7--|---------------------------- 6--|
http://classicalguitartablature.blogspot.com/
E|--------------------------------|-------------- 7------ 7------ 7|
B|-------------- 5---- 7-------- 8|-------- 8---- 7-------- 7------|
G|------ 6---- 6 6---- 6-------- 5|-------- 5------ 6-- 6----------|
D|-- 5-------- 5 5---- 5-------- 5|---- 5--------------------------|
A|--------------------------------|---------------- 6--------------|
E|------------------------------ 5|---------- 5--------------------|
http://classicalguitartablature.blogspot.com/
E|---- 7-------- 7------ 5--------|------------------------ 2------|
B| 5-- 5-------- 5------ 5------ 8|------------ 6---------- 3------|
G| 5-- 5-------- 5-------- 5------| 8---------- 5---------- 4------|
D|--------------------------------| 8---------- 3------------------|
A| 5-- 5------ 5------------------|--------------------------------|
E|--------------------------------| 6---------- 5---------- 3------|
http://classicalguitartablature.blogspot.com/

0 ความคิดเห็น:

แสดงความคิดเห็น