To celebrate the anniversary, I am giving you (finally...) : iPhone LickByNeck !!!!!!

Anak (Basic)

Classic Filipino folk song fingerstyle solo guitar arrangement played in the key of Am.
http://classicalguitartablature.blogspot.com/
You need to install the Flash plugin - http://www.webestools.com/

http://classicalguitartablature.blogspot.com/
Anak - Freddie Aguilar - BASIC ARRANGEMENT played in the key of Am
http://classicalguitartablature.blogspot.com/
E| 5------------ 5 7------ 7---- 7| 8------ 8---- 8 7------------ 5|
B| 5-------- 5--------------------|------------------------ 5------|
G|------ 5---- 5------ 5------ 5--|---- 5------ 5---- 5------ 5----|
D|---- 7-------- 7-- 7-------- 7--|-- 7-------- 7------ 7------ 7--|
A| 0------ 0---- 0-------- 0---- 0|-------- 0---- 0------ 0------ 0|
E|--------------------------------|--------------------------------|
http://classicalguitartablature.blogspot.com/
E|-------------- 5 7-------- 7----| 8------ 8---- 8 7 7---- 7------|
B|-------- 5----------------------|------------------ 5------------|
G|------ 5-- 5---------- 5------ 5|------ 5---- 5------------------|
D|---- 7------ 7---- 7-------- 7--|---- 7------ 7------ 7------ 7--|
A|-------- 0---- 0-------- 0---- 0|-------- 0---- 0-------- 0------|
E|--------------------------------|--------------------------------|
http://classicalguitartablature.blogspot.com/
E| 0-- 0 0-- 0 0 0 0--------------|--------------------------------|
B| 1-- 1 1-- 1 1-- 1 3-- 1--------| 1-- 1 1-- 1 1 1 1 0------------|
G| 2-- 2 2-- 2 2 2 2-------- 2-- 2| 2-- 2 2-- 2 2 2 2---- 2--------|
D|---------------------------- 2--| 3-- 3 3-- 3 3 3 3---------- 3--|
A| 0------ 0------ 0------ 0------|--------------------------------|
E|--------------------------------| 1------ 1------ 1------ 1------|
http://classicalguitartablature.blogspot.com/
E|--------------------------------|--------------------------------|
B| 0-- 0 0-- 0 0 0 1-- 0----------|------------ 0-- 0-- 1-- 1 3----|
G| 0-- 0 0-- 0 0 0 0-- 0-- 2-- 0--| 2-- 2-- 2-------------------- 7|
D| 0-- 0 0---- 0 0 0-- 0-- 0------|-- 2-- 2-- 2-- 2-- 2-- 2-- 2-- 2|
A|--------------------------------| 0-------------- 0------------ 0|
E| 3------ 3------ 3------ 3------|-------- 0-------------- 0------|
http://classicalguitartablature.blogspot.com/
E|---------- 5---------- 7--10----| 0-- 0 0-- 0 0 0 0--------------|
B|-- 5-- 5------10------10--------| 1-- 1 1-- 1 1-- 1 3-- 1--------|
G|---------------- 9-- 9-- 9-- 9--| 2-- 2 2-- 2 2 2 2-------- 2-- 2|
D| 7-- 7-- 7----------------------|---------------------------- 2--|
A|-------------- 0----------------| 0------ 0------ 0------ 0------|
E|------ 0-------------- 0--------|--------------------------------|
http://classicalguitartablature.blogspot.com/
E|--------------------------------|--------------------------------|
B| 1-- 1 1-- 1 1 1 1 0------------| 0-- 0 0-- 0 0 0 1-- 0----------|
G| 2-- 2 2-- 2 2 2 2---- 2--------| 0-- 0 0-- 0 0 0 0-- 0-- 2-- 0--|
D| 3-- 3 3-- 3 3 3 3---------- 3--| 0-- 0 0---- 0 0 0-- 0-- 0------|
A|--------------------------------|--------------------------------|
E| 1------ 1------ 1------ 1------| 3------ 3------ 3------ 3------|
http://classicalguitartablature.blogspot.com/
E|--------------------------------|--------------------------------|
B|---- 1 1 0 1-- 1 1 0 1---- 1 1 0| 1------------------------------|
G| 2---------- 2-------- 2--------|-- 2-------- 2---- 2-- 2---- 0--|
D|-- 2---------- 2-------- 2------|------ 2-- 2-- 2 2-- 2---- 2----|
A| 0-------------- 0------------ 0|-------------- 0----------------|
E|-------- 0------------ 0--------|-------- 0-------------- 0------|
http://classicalguitartablature.blogspot.com/
E|--------------------------------|--------------------------------|
B|--------------------------------|---------------------------- 0--|
G|--------------------------------| 0-- 0 0------ 0-- 0---- 2------|
D| 3-- 3 3---- 3 3---- 3 3---- 3--| 0-- 0 0---- 0-------- 0--------|
A|--------------------------------|--------------------------------|
E| 1------ 1------ 1------ 1------| 3------ 3------ 3------ 3------|
http://classicalguitartablature.blogspot.com/
E|---------------- 0--------------| 0------------------------------|
B|-------- 1-- 3-------------- 3--| 1 3 1--------------------------|
G| 2-- 2-------------- 2-------- 2| 2 2 2------ 2------ 2-- 2-- 0--|
D|-- 2-- 2-- 2-- 2-- 2-- 2-- 2----|-- 2-- 2-- 2-- 2-- 2-- 2-- 2----|
A| 0-------------- 0--------------| 0-------------- 0--------------|
E|-------- 0-------------- 0------|-------- 0-------------- 0------|
http://classicalguitartablature.blogspot.com/
E|--------------------------------|--------------------------------|
B|--------------------------------|---------------------------- 0--|
G|--------------------------------| 0-- 0 0------ 0-- 0---- 2------|
D| 3-- 3 3---- 3 3---- 3 3---- 3--| 0-- 0 0---- 0-------- 0--------|
A|--------------------------------|------------------------------ 0|
E| 1------ 1------ 1------ 1------| 3------ 3------ 3------ 3------|
http://classicalguitartablature.blogspot.com/
E|--------------------------------|--------------------------------|
B|-- 1-- 1 1---- 1 1 0 1---- 1 1 0| 1 0----------------------------|
G| 2-------- 2-------- 2 2--------|------ 0 2-- 2------ 2-- 2 0----|
D|-- 2---------- 2-------- 2------|---------- 2-- 2-- 2-- 2-- 2----|
A|-------------- 0-------------- 0|---------------- 0--------------|
E|-------- 0------------ 0--------|-------- 0-------------- 0------|
http://classicalguitartablature.blogspot.com/
E|--------------------------------|--------------------------------|
B|--------------------------------|--------------------------------|
G|-------------- 2----------------|-- 0-- 0 0-------- 0---- 0---- 2|
D| 3-- 3 3---- 3-------- 3 3---- 3| 3 0---------- 0----------------|
A|--------------------------------|--------------------------------|
E| 1------ 1------ 1-------- 1----|-- 3------ 3-------- 3----------|
http://classicalguitartablature.blogspot.com/
E|--------------------------------|--------------------------------|
B|---- 0--------------------------|---------------- 0-- 0---- 1-- 1|
G|--------------------------------|-- 2-- 2---- 2------------------|
D|--------------------------------|-- 2---------------- 2----------|
A|--------------------------------| 0------------------ 0----------|
E|--------------------------------|--------------------------------|
http://classicalguitartablature.blogspot.com/
E|------------ 0---- 0---- 5-- 5--|---- 7-- 8----10----------------|
B|---- 3-- 3----------------------|--------------------------------|
G|-------- 2------------------ 5--|---- 7-- 9----10----------------|
D|-------- 2----------------------|--------------------------------|
A|------ 0-------------------- 0--|--------------------------------|
E|--------------------------------|--------------------------------|
http://classicalguitartablature.blogspot.com/
E|--------------12----------------|--------------------------------|
B|------------ 0------------------|--------------------------------|
G|------------12------------------|--------------------------------|
D|--------------------------------|--------------------------------|
A|---------- 0--------------------|--------------------------------|
E|--------------------------------|--------------------------------|
http://classicalguitartablature.blogspot.com/

0 ความคิดเห็น:

แสดงความคิดเห็น