To celebrate the anniversary, I am giving you (finally...) : iPhone LickByNeck !!!!!!

Arthur's Theme

Christopher Cross' hit fingerstyle chord melody guitar arrangement played in the key of E.
http://classicalguitartablature.blogspot.com/
http://classicalguitartablature.blogspot.com/
Arthur's Theme played in the key of E.
Classical Guitar Tablature http://classicalguitartablature.blogspot.com/
E| 5 5 5------------------------ 4| 4-- 4-------------- 4----------|
B| 2 2 2-- 2------ 4------------ 5|-- 5 5 3 5------10-- 5-- 7-- 5--|
G| 2 2 2---- 2-- 6------ 4-- 4-- 4|-- 4 4 2 7------ 9---- 4 6-- 6--|
D|------------ 2 4---- 4 7-- 4----|-------- 6-------- 7------ 7-- 7|
A|-------------- 6-- 4------------|-------------- 5---- 5-- 6-- 7--|
E| 2---- 0-------------- 7-- 5-- 4|-------- 2-- 0-- 9--------------|
Classical Guitar Tablature http://classicalguitartablature.blogspot.com/
E|------ 2-------------------- 2--|------ 4------------------------|
B| 7 7 7 4-------------------- 1--| 7-- 6 6------ 6 6---- 6 3-- 5--|
G| 8 8 6 2-- 2-- 1-------- 5-- 1--| 8 8 5 5---- 5-- 6-- 6-- 4-- 4--|
D| 7 7 7---- 4-- 1-- 1-- 1-- 4-- 6|---- 4---- 6------ 6------ 4 3 3|
A| 9 9 6-- 4------ 3-- 1-------- 8|---- 6-- 4----------------------|
E|------------------------ 4-- 2--|---------------- 7------ 4-- 3--|
Classical Guitar Tablature http://classicalguitartablature.blogspot.com/
E|------ 5-- 5 5 5-- 7-- 9 7-- 5--| 4 4 4---------- 5--------------|
B|101010 5---- 7 7--10-- 9 4-- 4--| 5 5 5 9-- 5---- 5-- 9-- 7-- 5 7|
G| 9 9 7 6-- 6 6 6 9 9-- 8 4-- 2--| 4 4 4 7-- 7-- 7 6-- 8-- 9-- 5 6|
D| 7 7 9---------- 7--------------|------ 7-- 6-- 6-- 7 9 9-- 7 4 7|
A| 9-- 8-- 7-- 6------------------|---- 5---------------------- 5 6|
E|---------------- 9 8-- 7 5-- 2--| 0------ 7-- 6-- 5-- 7-- 9------|
Classical Guitar Tablature http://classicalguitartablature.blogspot.com/
E|-------- 2----------------------|------ 1 4-------------------- 9|
B|-- 7 7-- 4------------------ 7--| 7 4-- 4 4---- 4 7---- 7---- 9 9|
G|-- 6 6 2---- 2-- 1------ 5-- 6--| 6 1-- 1---- 3------ 4 6-- 6-- 8|
D|-- 7 7---- 4------ 1-- 1-- 4 4--| 4 1------ 3------ 4------ 9----|
A|------ 4-------- 3-- 1----------|-- 2-- 3 4------ 6------ 8---- 9|
E|------------------------ 4-- 5--| 6------------------------------|
Classical Guitar Tablature http://classicalguitartablature.blogspot.com/
E| 9 9-- 9-- 9-- 9 9-- 8-- 8------|--------------------------------|
B| 9-- 9 7-- 9-- 9 9--11-- 7--11--| 9------ 9------ 6--------------|
G| 8 8-- 6-- 8-- 8 8--10---- 8 8--| 8------ 8-------- 6---- 6 5 5--|
D|------------------ 6--11----1010|--10--10-- 6-- 6---- 6-- 5 5 4--|
A|---- 8 6---------------- 6 9----| 8------------------------------|
E|---------- 9---- 8-- 9----------|----11 8---- 7 6-------- 6 5 4 2|
Classical Guitar Tablature http://classicalguitartablature.blogspot.com/
E| 2 2 2 2-- 2 2-- 2 2 2-- 6---- 4|------------------------------ 9|
B| 4 4-- 2-- 2 2-- 2 2 2 9 9 6-- 4|------ 4 6-- 6-- 6---- 6 6-- 6 9|
G| 3 3 3 1-- 1 1 3-- 3 3 6 6 5-- 3|---- 3-- 8-- 8-- 6-- 5-- 4-- 4 8|
D|---------------------- 8---- 4--|-- 3------ 8 7---- 6-- 4-- 4 3--|
A|---------------------- 6---- 5 4|------------------------------ 9|
E|-------- 1---- 0----------------|-------- 8---- 7 6---- 5 4-- 3--|
Classical Guitar Tablature http://classicalguitartablature.blogspot.com/
E| 9 9-- 9-- 9-- 9 9-- 8-- 8------|---------------- 6--------------|
B| 9-- 9 7-- 9-- 9 9--11-- 7--11--| 9---------- 6-- 9----------11--|
G| 8 8-- 6-- 8-- 8 8--10---- 8 8--| 8------ 8-- 8 8------------10--|
D|------------------ 6--11----1010|--10--10-- 6-- 6-- 6------ 8----|
A|---- 8 6---------------- 6 9----| 8------------------------------|
E|---------- 9---- 8-- 9----------|----11-- 8-- 7 6------ 810------|
Classical Guitar Tablature http://classicalguitartablature.blogspot.com/
E|------ 2-- 4-- 6----------------|--------------------------------|
B| 7 7 7 2-- 4-- 9---- 9 7-- 6 2--| 2------ 2------ 2------ 2------|
G| 6 6 4 3-- 3-- 8-- 8-- 6-- 6 3--| 3---- 3 2------ 1---- 1 1------|
D| 4 4 6---------- 6---- 4-- 4 4--|-- 3-------- 1---- 1-- 0---- 0--|
A| 6-- 5-- 4-- 3------------------|------------------------------ 6|
E|---------------- 7---- 6-- 5-- 4| 3------ 2------ 1------ 0------|
Classical Guitar Tablature http://classicalguitartablature.blogspot.com/
E|-------- 2-- 4-- 6--------------|---------- 4---- 6------ 2 1----|
B| 7 7-- 7 2-- 4-- 9---- 9------ 6| 7 7 7 7---- 7-- 6---- 6 4 2-- 2|
G| 6 6-- 4 3-- 3-- 8-- 8------ 6--| 6 6 6 6------ 6---- 6-- 2 2-- 3|
D| 4 4-- 6---------- 6------ 4-- 4|-- 4 4---- 4------ 5---------- 2|
A|------ 5---- 3------------------|-------------------------- 2-- 3|
E|-------------- 7-------- 6---- 5|-------- 4---- 3------ 2--------|
Classical Guitar Tablature http://classicalguitartablature.blogspot.com/
E|--------------------------------|--------------------------------|
B| 2------------------------------|--------------------------------|
G| 5------------------------------|--------------------------------|
D| 3------------------------------|--------------------------------|
A| 4------------------------------|--------------------------------|
E|--------------------------------|--------------------------------|

0 ความคิดเห็น:

แสดงความคิดเห็น