To celebrate the anniversary, I am giving you (finally...) : iPhone LickByNeck !!!!!!

Bayan Ko - A Tribute To Corazon Cory Aquino (Basic)

Classic Filipino folk song by Freddie Aguilar fingerstyle chord melody guitar basic arrangement played in the key of C.
http://classicalguitartablature.blogspot.com/
You need to install the Flash plugin - http://www.webestools.com/

http://classicalguitartablature.blogspot.com/
Bayan Ko-Freddie Aguilar -BASIC ARRANGEMENT played in the key of C
http://classicalguitartablature.blogspot.com/
E| 8 8101111111111111010 8| 8 81010 8 8 8 8 8 8 8 7|
B|-------- 9---- 9--------|-------- 8---- 8--------|
G|--10------10------10----|---- 8------ 8------ 8--|
D|------------------------|------------------------|
A| 8----------------------|------------------------|
E|------------------------| 8----------------------|
http://classicalguitartablature.blogspot.com/
E| 7 7 8 8 7 7 7 7 7 7----| 8 8 8 8 8---- 8 8 8 8--|
B|-------- 8------ 8------|------ 8------ 8--------|
G|-- 7-------- 7------ 7--|---- 8---- 8-------- 8--|
D|------------------------|------------------------|
A|10----------------------|------------------------|
E|------------------------| 8----------------------|
http://classicalguitartablature.blogspot.com/
E| 8 8101111111111111010 8| 8 81010 8 8 8 8 8 8 8 7|
B|-------- 9---- 9--------|-------- 8---- 8--------|
G|--10------10------10----|---- 8------ 8------ 8--|
D|------------------------|------------------------|
A| 8----------------------|------------------------|
E|------------------------| 8----------------------|
http://classicalguitartablature.blogspot.com/
E| 7 7 8 8 7 7 7 7 7 7----| 8 8 8 8 8---- 8 8 8 8--|
B|-------- 8------ 8------|------ 8------ 8--------|
G|-- 7-------- 7------ 7--|---- 8---- 8-------- 8--|
D|------------------------|------------------------|
A|10----------------------|------------------------|
E|------------------------| 8----------------------|
http://classicalguitartablature.blogspot.com/
E| 8 8 8 8 8---- 8 8 8 8--|------------------------|
B|------ 8------ 8--------| 4-- 3-------------- 4--|
G|---- 8---- 8-------- 8--| 5------ 5-- 4-- 5------|
D|------------------------| 5-------------- 5------|
A|---------------------- 3|------------------------|
E| 8----------------------|------------------------|
http://classicalguitartablature.blogspot.com/
E| 3------ 3--------------|---------- 3---- 8--10--|
B| 4---------- 4----------|---- 3-- 4------ 8------|
G| 5------------ 5--------| 5-------------- 8------|
D|---- 5-------------- 5--|-- 5--------------------|
A| 3----------------------| 3----------------------|
E|------------------------|------------------------|
http://classicalguitartablature.blogspot.com/
E|10--------------------10|----11--1311--10--------|
B|131313--12------------12|--------1212------13--12|
G|101010--10------10----10|--10----1010--10--------|
D|--1212--12--12------12--|------------------------|
A|10--------------------10|------------------------|
E|------------------------|------------------------|
http://classicalguitartablature.blogspot.com/
E|--10--------------------|-- 7--------------------|
B|----------------12------| 8-------------------- 4|
G|10----10----------13----| 7---- 7------ 7--10-- 5|
D|12----------12-------- 9|------------ 9----------|
A|10--------------------10|---------------------- 3|
E|------------------------|------------------------|
http://classicalguitartablature.blogspot.com/
E|------ 3----------------|------------------------|
B|---- 6 4----------------| 4---- 3---------- 4----|
G|---------- 5------ 5----| 5------ 5 4-- 5------ 5|
D|-- 5---------- 5--------| 5-- 5-------- 5--------|
A|------------------------| 3-------------------- 3|
E|------------------------|------------------------|
http://classicalguitartablature.blogspot.com/
E| 3---- 4 3--------------|---------- 3-- 8------ 8|
B| 4---------- 4----------|---- 3 5------ 8--11----|
G|---------------- 5---- 5|---- 3 3------ 9-- 9-- 8|
D|-- 5---------------- 5--|-- 5-- 5------ 8-- 8----|
A|------------------------| 3-------------------- 8|
E|------------------------|------------------------|
http://classicalguitartablature.blogspot.com/
E|------------------------|---------------------- 3|
B| 911 911 9------------ 9|-- 8-- 6---------- 9-- 4|
G|-- 8 8 8 8-- 8---- 8-- 8|-- 8-- 8------ 8------ 3|
D|--10101010------10---- 6|---- 6-- 6 6------------|
A|---------------------- 8|---------------------- 3|
E|------------------------|------------------------|
http://classicalguitartablature.blogspot.com/
E|-------------------- 3--|------------------------|
B|-- 6-- 4----------------| 6 4---- 3------ 4------|
G|-- 3---- 3------ 3------| 4 4---- 4------ 4------|
D|-- 5---- 5-- 5----------| 3 3---- 3-- 3------ 3--|
A|------------------------|------------------------|
E|------------------------| 3----------------------|
http://classicalguitartablature.blogspot.com/
E|---------------------- 3|-- 3 3 3 3 3 3 3-- 3-- 0|
B| 1-------- 1---------- 0|---- 0 0 0 0 0 0-- 0-- 1|
G| 3------ 3---- 3------ 0|---- 0 0-- 0 0 0-- 0-- 0|
D|---- 1------------ 1----|------------------------|
A| 3----------------------|---------------------- 3|
E|------------------------| 3------ 3---- 3--------|
http://classicalguitartablature.blogspot.com/
E|---- 0------------------|------------------------|
B|---- 1 3-- 3-- 1-- 1-- 0|---- 1 0----------------|
G|---- 0 0-- 0-- 0-- 0-- 0|---- 0 0-------- 0------|
D|-- 2-- 2-- 2-- 2-- 2-- 0|---- 0-- 0-- 0---- 0----|
A|------------------------|------------------------|
E|---------------------- 3|------------------------|
http://classicalguitartablature.blogspot.com/
E|------------------------|------------------------|
B| 1---- 1 0-- 0----------|------------------------|
G| 0---- 0 0---- 2-- 0----| 2---- 0 0------ 0------|
D| 0-- 0-- 0 0------------| 2---- 2 2 2------ 2-- 2|
A|------------------------| 3-------------------- 3|
E| 3----------------------|------------------------|
http://classicalguitartablature.blogspot.com/
E|------------------------|------------------------|
B|------------------ 0----|------------------------|
G| 0---- 0-------- 0------| 2---- 0------------ 2--|
D|-- 4-- 2------ 4------ 3|-- 3-- 3------ 3--------|
A|---------------------- 5|---------- 5------------|
E|------------------------|------------------------|
http://classicalguitartablature.blogspot.com/
E|------------------------|---------------------- 0|
B|------------------------|-------------- 1------ 1|
G|---- 0------------ 2----| 0---------- 0---- 0-- 0|
D| 3---- 2 3-- 2-- 3------|---- 2 3 2--------------|
A|------------------------| 3-------------------- 3|
E| 3----------------------|------------------------|
http://classicalguitartablature.blogspot.com/
E|---- 0------------------|------------------------|
B|---- 1 3-- 3-- 1-- 1-- 0|---- 1 0----------------|
G|---- 0 0-- 0-- 0-- 0-- 0|---- 0 0-------- 0------|
D|-- 2-- 2-- 2-- 2-- 2-- 0|---- 0-- 0-- 0---- 0----|
A|------------------------|------------------------|
E|---------------------- 3|------------------------|
http://classicalguitartablature.blogspot.com/
E|------------------------|------------------------|
B| 1---- 1 0-- 0----------|------------------------|
G| 0---- 0 0---- 2-- 0-- 0|---- 2 0------ 0--------|
D| 0-- 0-- 0 0---------- 2|---- 2---- 2-------- 2--|
A|---------------------- 3|------------------------|
E| 3----------------------|------------------------|
http://classicalguitartablature.blogspot.com/
E|------------------------|---------------------- 0|
B|------------------------|---------- 1-- 0---- 1 3|
G| 2---- 2-- 2-- 0--------| 0---- 0-- 0-- 0---- 0 0|
D|---- 3------------ 4-- 2|-- 2------ 2-- 2---- 2--|
A|---------------------- 3|------------------------|
E| 1----------------------|---------------------- 3|
http://classicalguitartablature.blogspot.com/
E|------ 1------ 0--------|------------------------|
B|---- 3 3------ 0------ 1|---------- 1---------- 4|
G|---- 0------------ 0-- 0|-------- 0---- 0------ 3|
D|-- 0------ 0------------|---- 2-------------- 2--|
A|---------------------- 3|---------------------- 6|
E|------------------------|------------------------|
http://classicalguitartablature.blogspot.com/
E|---------------------- 1|---------------- 1------|
B|---------- 4---------- 1|---------- 1------ 1----|
G|------ 3------ 3------ 2|------ 2----------------|
D|---- 5------------ 5----|-- 3--------------------|
A|------------------------|------------------------|
E|---------------------- 1|------------------------|
http://classicalguitartablature.blogspot.com/
E|------------------------|------------------------|
B|-- 1--------------------|------------------------|
G| 0----------------------|------------------------|
D| 2----------------------|------------------------|
A| 3----------------------|------------------------|
E|------------------------|------------------------|
http://classicalguitartablature.blogspot.com/

0 ความคิดเห็น:

แสดงความคิดเห็น