-----[FreeSplanS.com]-----ศูนย์รวมแบบบ้าน และ ตกแต่ง หลากหลายสไตล์-----

Bengawan Solo

Legendary Indonesian folk song written by Gesang Martohartono fingerstyle chord melody guitar arrangement played in the key of A.


Bengawan Solo played in the key of A.
Classical Guitar Tablature http://classicalguitartablature.blogspot.com/
E|---------------------- 9--------| 7------------------------------|
B|-------- 5-- 2-- 5---- 9---- 9--| 7---------- 9-- 5---------- 7--|
G|---- 6-- 4-- 4-- 2---- 2-- 7----| 7---- 7---- 6-- 4---- 4---- 4--|
D|-- 7---- 2-- 2---- 4------------|---- 7------ 7------ 6------ 6--|
A|---------------------- 8--------| 7------ 6------ 5------ 4------|
E| 5------ 4-- 4-- 2--------------|--------------------------------|
Classical Guitar Tablature http://classicalguitartablature.blogspot.com/
E|------ 9------------------------| 5------------------------------|
B| 9---- 7---- 5-- 3---------- 2--| 5------ 5-------- 5------ 5----|
G| 9---- 7---- 7-- 4-- 4------ 4--| 4---- 4------ 5-- 5------ 5----|
D| 7---------- 5---- 4-------- 3--|---------- 3------ 4------ 4----|
A|--------------------------------|--------------------------------|
E| 8---- 7---- 6-- 5------ 4------| 3------------ 4-------- 4------|
Classical Guitar Tablature http://classicalguitartablature.blogspot.com/
E|---------------- 2--------------| 0------------------------------|
B|---- 5-- 5-- 5-- 5---------- 2--| 2------ 2----------------------|
G|---- 5-- 5-- 5-- 4-- 4------ 4--| 2---- 2------------ 4------ 4--|
D|---- 4-- 4-- 4---- 2-------- 3--|---- 2------ 2------ 2------ 2--|
A|--------------------------------| 0------------------------------|
E| 5------ 4------ 3---- 4--------|---------------- 4------ 4------|
Classical Guitar Tablature http://classicalguitartablature.blogspot.com/
E|-- 5-- 7---- 9-- 7------ 5------| 9------------------------------|
B|-- 2-- 9---- 7-- 7------ 5------|10------10---------- 5------ 5--|
G|-- 2-- 7---- 7-- 6-- 6-- 4---- 4| 9------------------ 7------ 7--|
D|-------------------- 7------ 6--|---- 9------ 9------ 6------ 6--|
A|-------- 8-- 7-- 6------ 5------|--------------------------------|
E| 2------------------------------| 9-------------- 7------ 7------|
Classical Guitar Tablature http://classicalguitartablature.blogspot.com/
E|---------------------- 9--------| 7------------------------------|
B|-------- 5-- 2-- 5---- 9---- 9--| 7---------- 9-- 5---------- 7--|
G|---- 6-- 4-- 4-- 2---- 2-- 7----| 7---- 7---- 6-- 4---- 4---- 4--|
D|-- 7---- 2-- 2---- 4------------|---- 7------ 7------ 6------ 6--|
A|---------------------- 8--------| 7------ 6------ 5------ 4------|
E| 5------ 4-- 4-- 2--------------|--------------------------------|
Classical Guitar Tablature http://classicalguitartablature.blogspot.com/
E|------ 9------------------------|--------------------------------|
B| 9---- 7---- 5-- 3---------- 5--| 2------------------------------|
G| 9---- 7---- 7-- 4-- 4---- 4----| 4-- 4------ 2-- 5-- 6------ 8--|
D| 7---------- 5---- 4-------- 3--|-- 2-------- 2-- 7-- 7------ 7--|
A|--------------------------------|---------------- 8---- 7---- 6 5|
E| 8---- 7---- 6-- 5---- 4--------| 3------ 2----------------------|
Classical Guitar Tablature http://classicalguitartablature.blogspot.com/
E|--------------------------------| 0------------------------------|
B|-- 5-- 5-- 5-- 7------------ 2--| 2------ 2----------------------|
G|-- 4-- 4-- 4---- 7---- 4---- 4--| 2---- 2------------ 4------ 4--|
D|-- 6-- 5---- 5------ 5 4---- 3--|---- 2------ 2------ 2------ 2--|
A|------ 4---- 3------------------| 0------------------------------|
E|---------------- 7-- 6-- 5-- 4--|---------------- 4------ 4------|
Classical Guitar Tablature http://classicalguitartablature.blogspot.com/
E|-- 5-- 7---- 9-- 7------ 5------| 9------------------------------|
B|-- 2-- 9---- 7-- 7------ 5------|10------10---------- 5------ 5--|
G|-- 2-- 7---- 7-- 6-- 6-- 4---- 4| 9------------------ 7------ 7--|
D|-------------------- 7------ 6--|---- 9------ 9------ 6------ 6--|
A|-------- 8-- 7-- 6------ 5------|--------------------------------|
E| 2------------------------------| 9-------------- 7------ 7------|
Classical Guitar Tablature http://classicalguitartablature.blogspot.com/
E|---------------------- 9--------| 7------------------------------|
B|-------- 5-- 2-- 5---- 9---- 9--| 7---------- 9-- 5---------- 7--|
G|---- 6-- 4-- 4-- 2---- 2-- 7----| 7---- 7---- 6-- 4---- 4---- 4--|
D|-- 7---- 2-- 2---- 4------------|---- 7------ 7------ 6------ 6--|
A|---------------------- 8--------| 7------ 6------ 5------ 4------|
E| 5------ 4-- 4-- 2--------------|--------------------------------|
Classical Guitar Tablature http://classicalguitartablature.blogspot.com/
E|------ 9------------------------| 5------------------------------|
B| 9---- 7---- 5-- 3---------- 2--| 5------ 5-------- 5------ 5----|
G| 9---- 7---- 7-- 4-- 4------ 4--| 4---- 4------ 5-- 5------ 5----|
D| 7---------- 5---- 4-------- 3--|---------- 3------ 4------ 4----|
A|--------------------------------|--------------------------------|
E| 8---- 7---- 6-- 5------ 4------| 3------------ 4-------- 4---- 5|
Classical Guitar Tablature http://classicalguitartablature.blogspot.com/
E|-- 5-- 5-- 5-------- 7-------- 5|--------------------------------|
B|-- 5------ 8--10----10---- 7-- 7|------ 7------ 7----------------|
G|-- 6-- 7-- 7-- 7---- 9---- 8-- 6|---- 6-------- 6------ 6--------|
D|-------------- 7---------- 7----|-- 7------ 7------ 7-------- 7--|
A|------------------------------ 5|-------------- 4----------------|
E|------ 6-------- 7-- 8---- 9----|--------------------------------|
Classical Guitar Tablature http://classicalguitartablature.blogspot.com/
E|---------------------- 4--------| 0------------------------------|
B|----10-- 9--1012--10-- 7-- 7----| 2---- 2---------- 2------ 2----|
G|---- 7-- 8---- 9------ 6-- 6----| 2---- 2---------- 2------ 2----|
D|---- 7-- 7----11----11------ 7--|---- 2---- 2------ 0------ 0----|
A|---------------------- 5---- 6--|------------------------------ 9|
E| 7------ 8------ 9--------------| 0-------------- 1---- 1--------|
Classical Guitar Tablature http://classicalguitartablature.blogspot.com/
E|-------------------- 9-- 7-- 5--| 7------------------------------|
B|--12--12----12--12------ 7-- 8--| 7---------- 7-- 7--------------|
G|-- 9----10--10-- 9------ 6-- 7--| 8---- 8-------- 4---- 4-- 4----|
D|--11----1212---- 9--------------|---- 7-- 7---------- 4-- 4------|
A|--------10------11--------------|--------------------------------|
E|------------------------ 5-- 6--| 7-------------- 5------------ 4|
Classical Guitar Tablature http://classicalguitartablature.blogspot.com/
E|-- 2-- 4-- 5-- 9------ 5------ 7|--------------------------------|
B|-- 3-- 4------ 9---- 9 7--------| 5---- 5------------------------|
G|-- 4-- 2---------- 7------ 6----|---- 4------ 4------ 7----------|
D|---- 4--------------------------|-------------------- 7------ 5--|
A|-------------- 8------ 6--------| 5------ 4----------------------|
E|------ 2------------------------|---------------- 7------ 6------|
Classical Guitar Tablature http://classicalguitartablature.blogspot.com/
E|---------------- 2--------------| 0------------------------------|
B|---- 5-- 5-- 5-- 5---------- 2--| 2------ 2----------------------|
G|---- 5-- 5-- 5-- 4-- 4------ 4--| 2---- 2------------ 4------ 4--|
D|---- 4-- 4-- 4---- 2-------- 3--|---- 2------ 2------ 2------ 2--|
A|--------------------------------| 0------------------------------|
E| 5------ 4------ 3---- 4--------|---------------- 4------ 4------|
Classical Guitar Tablature http://classicalguitartablature.blogspot.com/
E|-- 5-- 7---- 9-- 7------ 5------| 9------------------------------|
B|-- 2-- 9---- 7-- 7------ 5------|10------10---------- 5------ 5--|
G|-- 2-- 7---- 7-- 6-- 6-- 4---- 4| 9------------------ 7------ 7--|
D|-------------------- 7------ 6--|---- 9------ 9------ 6------ 6--|
A|-------- 8-- 7-- 6------ 5------|--------------------------------|
E| 2------------------------------| 9-------------- 7------ 7------|
Classical Guitar Tablature http://classicalguitartablature.blogspot.com/
E|---------------------- 9--------| 7------------------------------|
B|-------- 5-- 2-- 5---- 9---- 9--| 7---------- 9-- 5---------- 7--|
G|---- 6-- 4-- 4-- 2---- 2-- 7----| 7---- 7---- 6-- 4---- 4---- 4--|
D|-- 7---- 2-- 2---- 4------------|---- 7------ 7------ 6------ 6--|
A|---------------------- 8--------| 7------ 6------ 5------ 4------|
E| 5------ 4-- 4-- 2--------------|--------------------------------|
Classical Guitar Tablature http://classicalguitartablature.blogspot.com/
E|------ 9------------------------| 5------------------------------|
B| 9---- 7---- 5-- 3---------- 2--| 5------ 5-------- 5------ 5----|
G| 9---- 7---- 7-- 4-- 4------ 4--| 4---- 4------ 5-- 5------ 5----|
D| 7---------- 5---- 4-------- 3--|---------- 3------ 4------ 4----|
A|--------------------------------|--------------------------------|
E| 8---- 7---- 6-- 5------ 4------| 3------------ 4-------- 4------|
Classical Guitar Tablature http://classicalguitartablature.blogspot.com/
E|---------------------- 9--------| 7------------------------------|
B|-------- 5-- 2-- 5---- 9---- 9--| 7---------- 9-- 5---------- 7--|
G|---- 6-- 4-- 4-- 2---- 2-- 7----| 7---- 7---- 6-- 4---- 4---- 4--|
D|-- 7---- 2-- 2---- 4------------|---- 7------ 7------ 6------ 6--|
A|---------------------- 8--------| 7------ 6------ 5------ 4------|
E| 5------ 4-- 4-- 2--------------|--------------------------------|
Classical Guitar Tablature http://classicalguitartablature.blogspot.com/
E|------ 9------------------------| 5------------------------------|
B| 9---- 7---- 5-- 3---------- 2--| 5------ 5-------- 5------ 5----|
G| 9---- 7---- 7-- 4-- 4------ 4--| 4---- 4------ 5-- 5------ 5----|
D| 7---------- 5---- 4-------- 3--|---------- 3------ 4------ 4----|
A|--------------------------------|--------------------------------|
E| 8---- 7---- 6-- 5------ 4------| 3------------ 4-------- 4------|
Classical Guitar Tablature http://classicalguitartablature.blogspot.com/
E|---------------------- 9--------| 7------------------------------|
B|-------- 5-- 2-- 5---- 9---- 9--| 7---------- 9-- 5---------- 7--|
G|---- 6-- 4-- 4-- 2---- 2-- 7----| 7---- 7---- 6-- 4---- 4---- 4--|
D|-- 7---- 2-- 2---- 4------------|---- 7------ 7------ 6------ 6--|
A|---------------------- 8--------| 7------ 6------ 5------ 4------|
E| 5------ 4-- 4-- 2--------------|--------------------------------|
Classical Guitar Tablature http://classicalguitartablature.blogspot.com/
E|------ 9------------------------| 5------------------------------|
B| 9---- 7---- 5-- 3---------- 2--| 5------ 5-------- 5------ 5----|
G| 9---- 7---- 7-- 4-- 4------ 4--| 4---- 4------ 5-- 5------ 5----|
D| 7---------- 5---- 4-------- 3--|---------- 3------ 4------ 4----|
A|--------------------------------|------------------------------ 0|
E| 8---- 7---- 6-- 5------ 4------| 3------------ 4-------- 4------|
Classical Guitar Tablature http://classicalguitartablature.blogspot.com/
E|-------- 5-- 5 5----------------|--------------------------------|
B|-------- 5-- 6 7----------------|--------------------------------|
G|------ 4 4-- 6-- 6--------------|--------------------------------|
D|-- 4----------------------------|--------------------------------|
A|--------------------------------|--------------------------------|
E|--------------------------------|--------------------------------|
Classical Guitar Tablature http://classicalguitartablature.blogspot.com/

0 ความคิดเห็น:

แสดงความคิดเห็น