To celebrate the anniversary, I am giving you (finally...) : iPhone LickByNeck !!!!!!

Black Bird

Classic Beatles' hit fingerstyle chord melody guitar arrangement played in the key of G.


http://classicalguitartablature.blogspot.com/
Black Bird played in the key of G.
Classical Guitar Tablature http://classicalguitartablature.blogspot.com/
E|------------------------------ 7|-------- 7---- 7-------- 7---- 0|
B|------ 0------ 1------ 3--------|------ 0------------ 0------ 0 1|
G|------------ 0------ 0------ 0--|---- 0------ 0---- 0------ 0----|
D|---------- 0------ 2------ 0----|--------------------------------|
A|-------------- 0-------- 2------|10----10------10------10------ 3|
E|------ 3------------------------|--------------------------------|
Classical Guitar Tablature http://classicalguitartablature.blogspot.com/
E|-------- 3-------------- 5------|--------------------------------|
B|------ 1 5---- 5 7------ 8---- 8| 8-------- 8---- 8-------- 8----|
G|---- 0---- 4---- 7---- 7---- 5--| 7---- 7-------- 5---- 5--------|
D|-------------------- 7----------|---- 5------ 5------ 7------ 7--|
A|-------- 4------ 5------ 6------| 7------ 7------ 6---- 6--------|
E|--------------------------------|--------------------------------|
Classical Guitar Tablature http://classicalguitartablature.blogspot.com/
E|------ 3------------------------|--------------------------------|
B| 7---------- 5 5---------- 5----| 4-------- 4---- 3-------- 3----|
G| 7---- 7-- 4-- 5------ 5--------| 5---- 5-------------- 0--------|
D|---- 7-------------- 5------ 5--|---- 5------ 5------ 0------ 0--|
A| 5---- 4-------- 3------ 3------| 3-------------- 2--------------|
E|--------------------------------|--------------------------------|
Classical Guitar Tablature http://classicalguitartablature.blogspot.com/
E|--------------------------------|-------- 3-- 3--------------10--|
B| 2------ 2----------------------|-------- 3-- 3-- 8-- 8-- 8------|
G|------ 0------ 5---- 5-- 5---- 0|---------- 4---- 5-- 5-- 7------|
D|---- 2---- 2-------- 5---- 5----|---- 0------------ 5------ 7----|
A| 0------ 0---- 5------ 5--------|--------------------------------|
E|------------------------------ 3|-------- 3------ 5------ 7------|
Classical Guitar Tablature http://classicalguitartablature.blogspot.com/
E|10--------10--10--------10---- 7|----------------------------10--|
B|------ 8------------ 8-------- 8|10 8--10--10--10----10--13------|
G|---- 7------ 7---- 7------ 7-- 7| 7---- 9-------- 7------12------|
D|--------------------------------|---------- 9------ 7------10----|
A|10------10------10----10--------|--------------------------------|
E|------------------------------ 8|------ 9--------10------11------|
Classical Guitar Tablature http://classicalguitartablature.blogspot.com/
E| 7-------- 7--------------------| 5-- 7--------------------------|
B| 8---- 8-------- 8-------- 8----| 7-- 8------ 8------------ 8----|
G|---- 7------ 7-- 5---- 5--------|---- 7------ 9-------- 9--------|
D|-------------------- 7------ 7--|-------- 9--10------10------10--|
A| 7-------------- 6------ 6------| 5------------------------------|
E|--------------------------------|------ 9-------- 8--------------|
Classical Guitar Tablature http://classicalguitartablature.blogspot.com/
E|---------------------------- 5--| 7-- 5-- 3------ 5-- 3-- 7-- 5--|
B| 8-------- 8---- 8-- 8-- 8------| 5------ 2-- 5-- 3-- 1-- 8-- 5--|
G| 8---- 8-------- 7------ 7------|-- 6---- 2------ 2-- 0-- 5-- 5--|
D|----10------10---- 5-- 5-- 5----|---------- 2--------------------|
A|--------------------------------|------------------------ 6-- 5--|
E| 8------ 8------ 7------ 6---- 5|-------- 3------ 2-- 0----------|
Classical Guitar Tablature http://classicalguitartablature.blogspot.com/
E| 3------------ 0----------------|--------------------------------|
B| 3-------- 3-------- 1-- 3---- 2|-------- 2---- 5-------- 5---- 3|
G|------ 4---------- 0-------- 0--|------ 0------ 5------ 5------ 4|
D|---- 5------ 5------------ 0----|---- 2---- 2-------- 5------ 5--|
A|-------------- 3------ 2------ 0|-------- 0---- 5------ 5--------|
E| 3------ 3----------------------|------------------------------ 3|
Classical Guitar Tablature http://classicalguitartablature.blogspot.com/
E|-------- 3-- 3--------------10--|10--------10--10--------10---- 7|
B|-------- 3-- 3-- 8-- 8-- 8------|------ 8------------ 8-------- 8|
G|---- 4---- 4---- 5-- 5-- 7------|---- 7------ 7---- 7------ 7-- 7|
D|-- 5-------------- 5------ 7----|--------------------------------|
A|--------------------------------|10------10------10----10--------|
E|-------- 3------ 5------ 7------|------------------------------ 8|
Classical Guitar Tablature http://classicalguitartablature.blogspot.com/
E|----------------------------10--| 7-------- 7--------------------|
B|10 8--10--10--10----10--13------| 8---- 8-------- 8-------- 8----|
G| 7---- 9-------- 7------12------|---- 7------ 7-- 5---- 5--------|
D|---------- 9------ 7------10----|-------------------- 7------ 7--|
A|--------------------------------| 7-------------- 6------ 6------|
E|------ 9--------10------11------|--------------------------------|
Classical Guitar Tablature http://classicalguitartablature.blogspot.com/
E| 5-- 7--------------------------|---------------------------- 5--|
B| 7-- 8------ 8------------ 8----| 8-------- 8---- 8-- 8-- 8------|
G|---- 7------ 9-------- 9--------| 8---- 8-------- 7------ 7------|
D|-------- 9--10------10------10--|----10------10---- 5-- 5-- 5----|
A| 5------------------------------|--------------------------------|
E|------ 9-------- 8--------------| 8------ 8------ 7------ 6---- 5|
Classical Guitar Tablature http://classicalguitartablature.blogspot.com/
E| 7-- 5-- 3------ 5-- 3-- 7-- 5--| 3------------ 8----------------|
B| 5------ 2-- 5-- 3-- 1-- 8-- 5--| 3-------- 3-- 6---- 6---- 8----|
G|-- 6---- 2------ 2-- 0-- 5-- 5--|------ 4------ 5-- 5---- 5 5----|
D|---------- 2--------------------|---- 5------ 5------------ 7----|
A|------------------------ 6-- 5--|-------------- 8------ 7------ 5|
E|-------- 3------ 2-- 0----------| 3------ 3----------------------|
Classical Guitar Tablature http://classicalguitartablature.blogspot.com/
E|---------- 3--------------------|-------------- 8----------------|
B|---------- 3------------ 3---- 5|-------- 5---- 6---- 6---- 8----|
G|---- 5---- 3-------- 3-------- 5|---- 5-------- 5-- 5---- 5 5----|
D|-- 7---- 5-------- 3------ 3----|-- 5------ 5-------------- 7----|
A|--------------------------------|-------------- 8------ 7------ 5|
E|------ 8------ 6------ 6------ 8|------ 8------------------------|
Classical Guitar Tablature http://classicalguitartablature.blogspot.com/
E|---------- 3--------------------|----15----1310--13--10 8-- 6----|
B|---------- 3------------ 3------|----14----1413--13-- 7 8-- 6 6--|
G|---- 5---- 3-------- 3-------- 6|----12----1212--11-- 7 8-- 5 5--|
D|-- 7---- 5-------- 3------ 3----|---- 5---------------------- 4--|
A|--------------------------------|------12------------------------|
E|------ 8------ 6------ 6------ 5|------------11--10-- 8-- 6 5 4--|
Classical Guitar Tablature http://classicalguitartablature.blogspot.com/
E| 3------------ 0----------------|--------------------------------|
B| 3-------- 3-------- 1-- 3---- 2|-------- 2---- 5-------- 5---- 3|
G|------ 4---------- 0-------- 0--|------ 0------ 5------ 5------ 4|
D|---- 5------ 5------------ 0----|---- 2---- 2-------- 5------ 5--|
A|-------------- 3------ 2------ 0|-------- 0---- 5------ 5--------|
E| 3------ 3----------------------|------------------------------ 3|
Classical Guitar Tablature http://classicalguitartablature.blogspot.com/
E|-------- 3-- 3--------------10--|10--------10--10--------10---- 7|
B|-------- 3-- 3-- 8-- 8-- 8------|------ 8------------ 8-------- 8|
G|---- 4---- 4---- 5-- 5-- 7------|---- 7------ 7---- 7------ 7-- 7|
D|-- 5-------------- 5------ 7----|--------------------------------|
A|--------------------------------|10------10------10----10--------|
E|-------- 3------ 5------ 7------|------------------------------ 8|
Classical Guitar Tablature http://classicalguitartablature.blogspot.com/
E|----------------------------10--| 7-------- 7--------------------|
B|10 8--10--10--10----10--13------| 8---- 8-------- 8-------- 8----|
G| 7---- 9-------- 7------12------|---- 7------ 7-- 5---- 5--------|
D|---------- 9------ 7------10----|-------------------- 7------ 7--|
A|--------------------------------| 7-------------- 6------ 6------|
E|------ 9--------10------11------|--------------------------------|
Classical Guitar Tablature http://classicalguitartablature.blogspot.com/
E| 5-- 7--------------------------|---------------------------- 5--|
B| 7-- 8------ 8------------ 8----| 8-------- 8---- 8-- 8-- 8------|
G|---- 7------ 9-------- 9--------| 8---- 8-------- 7------ 7------|
D|-------- 9--10------10------10--|----10------10---- 5-- 5-- 5----|
A| 5------------------------------|--------------------------------|
E|------ 9-------- 8--------------| 8------ 8------ 7------ 6---- 5|
Classical Guitar Tablature http://classicalguitartablature.blogspot.com/
E| 7-- 5-- 3------ 5-- 3-- 7-- 5--| 3-------------------------- 5--|
B| 5------ 2-- 5-- 3-- 1-- 8-- 5--| 3-------- 3---- 8-- 8-- 8------|
G|-- 6---- 2------ 2-- 0-- 5-- 5--|------ 4-------- 7------ 7------|
D|---------- 2--------------------|---- 5------ 5---- 5-- 5-- 5----|
A|------------------------ 6-- 5--|--------------------------------|
E|-------- 3------ 2-- 0----------| 3------ 3------ 7------ 6---- 5|
Classical Guitar Tablature http://classicalguitartablature.blogspot.com/
E| 7-- 5-- 3------ 5-- 3-- 7-- 5--| 3------------ 0----------------|
B| 5------ 2-- 5-- 3-- 1-- 8-- 5--| 3-------- 3-------- 1-- 3---- 2|
G|-- 6---- 2------ 2-- 0-- 5-- 5--|------ 4---------- 0-------- 0--|
D|---------- 2--------------------|---- 5------ 5------------ 0----|
A|------------------------ 6-- 5--|-------------- 3------ 2------ 0|
E|-------- 3------ 2-- 0----------| 3------ 3----------------------|
Classical Guitar Tablature http://classicalguitartablature.blogspot.com/
E|--------------------------------|--------------------------------|
B|-------- 2---- 5-------- 5------| 0------------------------------|
G|------ 0------ 5------ 5--------| 0------------------------------|
D|---- 2---- 2-------- 5------ 5--| 0------------------------------|
A|-------- 0---- 5------ 5--------|--------------------------------|
E|--------------------------------| 3------------------------------|
Classical Guitar Tablature http://classicalguitartablature.blogspot.com/
E|--------------------------------|--------------------------------|
B|--------------------------------|--------------------------------|
G|--------------------------------|--------------------------------|
D|--------------------------------|--------------------------------|
A|--------------------------------|--------------------------------|
E|--------------------------------|--------------------------------|

0 ความคิดเห็น:

แสดงความคิดเห็น