To celebrate the anniversary, I am giving you (finally...) : iPhone LickByNeck !!!!!!

Can't Take My Eyes Off You 2005

Some experiment I done in 2005. Pop hit fingerstyle chord melody guitar arrangement played in the key of C.
http://classicalguitartablature.blogspot.com/
http://classicalguitartablature.blogspot.com/
Can't Take My Eyes Off You played in the key of C.
Classical Guitar Tablature http://classicalguitartablature.blogspot.com/
E|--------------------------------|--------------------------------|
B|---- 3---------- 3------ 3------| 3-------------- 1------ 1------|
G|------ 2-------- 2------ 1------| 3---- 5---- 4-- 2------ 2------|
D|------ 2-------- 1------ 0------| 3---- 3---- 3-- 2------ 2------|
A|--------------------------------| 6---- 5---- 4------------------|
E| 2-------------- 1------ 0------|---------------- 3--------------|
Classical Guitar Tablature http://classicalguitartablature.blogspot.com/
E|--------------------------------|--------------------------------|
B|------ 8-------- 8------ 8------|10---- 8---- 5-- 8--------------|
G|------ 7-------- 7------ 8------| 9---------- 5-- 5--------------|
D|------ 6-------- 6------ 7------| 9---------- 5-- 5--------------|
A|--------------------------------|---------------- 7------ 8------|
E|-- 6------------ 6------ 7------| 8------------------------------|
Classical Guitar Tablature http://classicalguitartablature.blogspot.com/
E|--------------------------------| 5------------------------------|
B|---- 8---- 8---- 8------ 8------| 6-- 8------ 5-- 8---- 8-- 8----|
G|---- 9---- 9---- 9------ 8------| 7-- 7------ 7-- 5---- 5-- 7----|
D|------10--10---- 8------ 7------|---- 6------ 6-- 5---- 5-- 6----|
A|10----------10-- 9--------------|------ 7------------------------|
E|------------------------ 7------| 7---------- 6-- 5------ 7---- 7|
Classical Guitar Tablature http://classicalguitartablature.blogspot.com/
E|--------------------------------| 5-- 3---------- 3--------------|
B| 8------ 8---- 8-------- 8------| 6-- 4------ 5-- 3--------------|
G|-------- 5------ 8------ 7------| 5-- 3------ 3-- 3--------------|
D| 7------ 5------ 6------ 6------|------------ 3------------------|
A|-------- 7------ 8--------------| 6-------------- 3------ 5---- 0|
E| 8---------------------- 6------|------ 4 3----------------------|
Classical Guitar Tablature http://classicalguitartablature.blogspot.com/
E|--------------------------------|--------------------------------|
B|---- 8---------- 8------ 8------| 8-- 6------ 8-- 6--------------|
G|---- 5----------10------ 9------| 9-- 7------ 7-- 5--------------|
D|---- 8---------- 8------ 8------| 7-- 7------ 5-- 3--------------|
A| 7------ 8-- 0--10------ 9------| 8------------------------------|
E|--------------------------------|-------- 8-- 7---- 5---- 3---- 0|
Classical Guitar Tablature http://classicalguitartablature.blogspot.com/
E|---------------- 1------ 1------| 3---- 1---- 3------------------|
B|------ 1-------- 2------ 2------| 1---- 1---- 4-- 6--------------|
G|------ 2-------- 3------ 1------| 1---- 1---- 5-- 5--------------|
D|------ 2------------------------|---------------- 6--------------|
A|--------------------------------|------------------------------ 0|
E| 1------ 1------ 3------ 2------| 1------ 4------ 6------ 8------|
Classical Guitar Tablature http://classicalguitartablature.blogspot.com/
E|--------------------------------|------------------------ 0------|
B|---- 6------ 9-- 6------ 6------| 6-- 5------ 6-- 5------ 1------|
G|------------ 7-- 7------ 6------| 5-- 5------ 5-- 5------ 2------|
D|---- 6------ 9-- 6--------------| 5-- 5------ 5-- 5--------------|
A| 5------ 8------ 7--------------|--------------------------------|
E|------------------------ 5------| 4-- 3---------- 3------ 2-- 0--|
Classical Guitar Tablature http://classicalguitartablature.blogspot.com/
E| 0-------------- 0------ 0------|--------------------------------|
B| 1------ 1------ 2------ 1------| 5-- 3------ 1-- 3------ 3------|
G| 2------ 2------ 2------ 1------| 5-- 3------ 2-- 2------ 2------|
D|--------------------------------| 5-- 4------ 2-- 2--------------|
A|---------------- 2------ 1------|--------------------------------|
E| 1------ 0----------------------| 5-- 4------ 3------------------|
Classical Guitar Tablature http://classicalguitartablature.blogspot.com/
E|--------------------------------|--------------------------------|
B|------ 3-------- 3------ 3------| 3-------------- 1---- 1--------|
G|------ 2-------- 2------ 1------| 3---- 5---- 4-- 2---- 2--------|
D|------ 2-------- 1------ 0------| 5---- 3---- 3-- 2---- 2---- 0--|
A|--------------------------------| 6---- 5---- 4------------------|
E| 2------------ 0 1---- 0-- 0----|---------------- 3------ 3------|
Classical Guitar Tablature http://classicalguitartablature.blogspot.com/
E|--------------------------------|--------------------------------|
B| 3---- 3-------- 6------ 6------| 9------10---- 9--------10---- 9|
G| 3---- 3-------- 6------ 6------|10------ 9---- 8-------- 8---- 7|
D|------ 2-------- 5------ 5------|10------ 8---- 8-------- 7---- 6|
A|------------------------ 6------|--------------------------------|
E| 3------ 3------ 5--------------|10------ 9---- 8-------- 7---- 6|
Classical Guitar Tablature http://classicalguitartablature.blogspot.com/
E|-------- 5---- 8---- 7------ 5--|-------------------- 5----------|
B|-------- 6---- 6---- 6------ 5--| 9------10-- 9------ 6----------|
G|-------- 6---- 5---- 7------ 4--| 9------ 9-- 7------ 5----------|
D|-------------------- 6------ 3--| 8------10-- 9------------------|
A|--------------------------------|-------- 8-- 7------------------|
E|-------- 5---- 4----------------| 8-------------------- 6--------|
Classical Guitar Tablature http://classicalguitartablature.blogspot.com/
E|--------------------------------|------12--------12------12----12|
B|13--------13----13--13----13--13|------13--------12------11----10|
G|12----12--12----12--12----12--12|--------------------------------|
D|11----11----11--11--11----11--11|--------------------------------|
A| 0------ 0---- 0-------- 0-- 0--|--------------------------------|
E|--------------------------------|--------------------------------|
Classical Guitar Tablature http://classicalguitartablature.blogspot.com/
E|-------------------- 7-- 8--10--|12--12--------10---- 8-- 7-- 8--|
B|--------10--10----------10--10--|10--10-------- 9--------10-- 8--|
G|10------10-- 7---------- 9-- 9--|10-- 9-------- 8-------- 9-- 8--|
D|----10-------- 9----------------|--------------------------------|
A|-------------- 7-------- 8-- 9--|10---- 9------ 8-------- 9-- 8--|
E|10------------------------------|--------------------------------|
Classical Guitar Tablature http://classicalguitartablature.blogspot.com/
E|10---------------------- 7-- 8--|10-------------- 8-- 7-- 5-- 7--|
B| 8------------ 8----10-- 7-- 8--| 8--------------10-- 8-- 7-- 7--|
G| 7------------ 8---- 9-- 8-- 7--| 9-------------- 9-- 8-- 7-- 6--|
D|-------------- 8------ 8--------| 7-- 6--------------------------|
A| 7------------------------------|--------10-- 9------ 8-- 7-- 6--|
E|------ 7 8---- 9------ 8 7-- 6--|--------------------------------|
Classical Guitar Tablature http://classicalguitartablature.blogspot.com/
E| 8------ 8----------------------| 8------ 8------ 7--------------|
B| 6------ 9---- 6----------------| 6------ 9------ 9------13------|
G| 5------ 8---- 6------10 9---- 8| 7------10------ 8------10------|
D|-------------- 8------ 9 8---- 7|------------------------12------|
A| 5------------ 9----------------|---------------- 7------10------|
E|------ 9-------------- 9 8---- 7| 6------ 9----------------------|
Classical Guitar Tablature http://classicalguitartablature.blogspot.com/
E|--------------------------------|------12--------12------12----12|
B|10------------ 8-------- 8------|13----13--------12------11----10|
G| 9------------ 9-------- 7------|12------------------------------|
D| 9---- 0------ 7-------- 6------|11------------------------------|
A|-------- 9---- 8------ 0 7------| 0------------------------------|
E| 8------------------------------|--------------------------------|
Classical Guitar Tablature http://classicalguitartablature.blogspot.com/
E|-------------------- 7-- 8--10--|12--12--------10---- 8-- 7-- 8--|
B|--------10--10----------10--10--|10--10-------- 9--------10-- 8--|
G|10------10-- 7---------- 9-- 9--|10-- 9-------- 8-------- 9-- 8--|
D|----10-------- 9----------------|--------------------------------|
A|-------------- 7-------- 8-- 9--|10---- 9------ 8-------- 9-- 8--|
E|10------------------------------|--------------------------------|
Classical Guitar Tablature http://classicalguitartablature.blogspot.com/
E|10---------------------- 7-- 8--|10-------------- 8-- 7-- 5-- 7--|
B| 8------------ 8----10-- 7-- 8--| 8--------------10-- 8-- 7-- 7--|
G| 7------------ 8---- 9-- 8-- 7--| 9-------------- 9-- 8-- 7-- 6--|
D|-------------- 8------ 8--------| 7-- 6--------------------------|
A| 7------------------------------|--------10-- 9------ 8-- 7-- 6--|
E|------ 7 8---- 9------ 8 7-- 6--|--------------------------------|
Classical Guitar Tablature http://classicalguitartablature.blogspot.com/
E|------------10------------------|---- 7---------- 8------ 5---- 8|
B|13----------11----------10------|---- 8---------- 8------ 6---- 6|
G|11------------10-------- 9------|---- 8---------- 7------ 6---- 5|
D|10---------------------- 8------|--------------------------------|
A|--------------------------------|--------------------------------|
E|10------------ 9-------- 8------|------ 7-------- 6------ 5------|
Classical Guitar Tablature http://classicalguitartablature.blogspot.com/
E|----------10--------------------|--------------------------------|
B|----------11--------------------|------ 8-------- 8------ 8------|
G|----------10--------------------|------ 7-------- 7------ 8------|
D|--------------------------------|------ 6-------- 7------ 7------|
A|--------------------------------|--------------------------------|
E| 4-------- 9--------------------| 6-------------- 7------ 7------|
Classical Guitar Tablature http://classicalguitartablature.blogspot.com/
E|--------------------------------|--------------------------------|
B|10---- 8---- 5-- 8--------------|---- 8---- 8---- 8------ 8------|
G| 9---------- 5-- 5--------------|---- 9---- 9---- 9------ 8------|
D| 9---------- 5-- 5--------------|------10--10---- 8------ 7------|
A|---------------- 7------ 8------|10----------10-- 9--------------|
E| 8------------------------------|------------------------ 7------|
Classical Guitar Tablature http://classicalguitartablature.blogspot.com/
E| 5------------------------------|--------------------------------|
B| 6-- 8------ 5-- 8---- 8-- 8----| 8------ 8---- 8-------- 8------|
G| 7-- 7------ 7-- 5---- 5-- 7----|-------- 5------ 8------ 7------|
D|---- 6------ 6-- 5---- 5-- 6----| 7------ 5------ 6------ 6------|
A|------ 7------------------------|-------- 7------ 8--------------|
E| 7---------- 6-- 5------ 7---- 7| 8---------------------- 6------|
Classical Guitar Tablature http://classicalguitartablature.blogspot.com/
E| 5-- 3---------- 3--------------|--------------------------------|
B| 6-- 4------ 5-- 3--------------|---- 8---------- 8------ 8------|
G| 5-- 3------ 3-- 3--------------|---- 5----------10------ 9------|
D|------------ 3------------------|---- 8---------- 8------ 8------|
A| 6-------------- 3------ 5---- 0| 7------ 8-- 0--10------ 9------|
E|------ 4 3----------------------|--------------------------------|
Classical Guitar Tablature http://classicalguitartablature.blogspot.com/
E|--------------------------------|---------------- 1------ 1------|
B| 8-- 6------ 8-- 6--------------|------ 1-------- 2------ 2------|
G| 9-- 7------ 7-- 5--------------|------ 2-------- 3------ 1------|
D| 7-- 7------ 5-- 3--------------|------ 2------------------------|
A| 8------------------------------|--------------------------------|
E|-------- 8-- 7---- 5---- 3------| 1------ 1------ 3------ 2------|
Classical Guitar Tablature http://classicalguitartablature.blogspot.com/
E| 3---- 1---- 3------------------|--------------------------------|
B| 1---- 1---- 4-- 6--------------|---- 6------ 9-- 6------ 6------|
G| 1---- 1---- 5-- 5--------------|------------ 7-- 7------ 6------|
D|---------------- 6--------------|---- 6------ 9-- 6--------------|
A|------------------------------ 0| 5------ 8------ 7--------------|
E| 1------ 4------ 6------ 8------|------------------------ 5------|
Classical Guitar Tablature http://classicalguitartablature.blogspot.com/
E|------------------------ 0------| 0-------------- 0------ 0------|
B| 6-- 5------ 6-- 5------ 1------| 1------ 1------ 2------ 1------|
G| 5-- 5------ 5-- 5------ 2------| 2------ 2------ 2------ 1------|
D| 5-- 5------ 5-- 5--------------|--------------------------------|
A|--------------------------------|---------------- 2------ 1------|
E| 4-- 3---------- 3------ 2------| 1------ 0----------------------|
Classical Guitar Tablature http://classicalguitartablature.blogspot.com/
E|--------------------------------|--------------------------------|
B| 5-- 3------ 1-- 3------ 3------|------ 3-------- 3------ 3------|
G| 5-- 3------ 2-- 2------ 2------|------ 2-------- 2------ 1------|
D| 5-- 4------ 2-- 2--------------|------ 2-------- 1------ 0------|
A|--------------------------------|--------------------------------|
E| 5-- 4------ 3------------------| 2------------ 0 1-------- 0----|
Classical Guitar Tablature http://classicalguitartablature.blogspot.com/
E|--------------------------------|--------------------------------|
B| 3------------------------------|--------------------------------|
G| 3---- 5---- 4-- 5------------ 5|------ 5-------- 5---------- 5--|
D| 5---- 3---- 3-- 5------------ 5|------ 5-------- 5---------- 5--|
A| 6---- 5---- 4------------------|--------------------------------|
E|--------------------------------| 6-------------- 5--------------|
Classical Guitar Tablature http://classicalguitartablature.blogspot.com/
E|--------------------------------|--------------------------------|
B|--------------------------------|--------------------------------|
G|------ 5------ 5-------- 5------| 5---- 5------ 5----------------|
D|------ 5------ 5-------- 5------| 3---- 3------ 2----------------|
A|--------------------------------|--------------------------------|
E| 4------ 4---- 3----------------|--------------------------------|
Classical Guitar Tablature http://classicalguitartablature.blogspot.com/
E|--------------------------------|--------------------------------|
B|--------------------------------|--------------------------------|
G|--------------------------------|--------------------------------|
D|--------------------------------|--------------------------------|
A|--------------------------------|--------------------------------|
E|--------------------------------|--------------------------------|

0 ความคิดเห็น:

แสดงความคิดเห็น