To celebrate the anniversary, I am giving you (finally...) : iPhone LickByNeck !!!!!!

Cheek To Cheek

Popular Jazz tune fingerstyle solo guitar arrangement.
http://classicalguitartablature.blogspot.com/
Cheek To Cheek played in the key of A.
http://classicalguitartablature.blogspot.com/
E|--------------------------------|--------------------------------|
B| 7-- 5--------------------------|------------------------------ 7|
G| 6-- 6------ 6------ 6----------|---- 7-------- 6-- 7 7-------- 6|
D| 6-- 6-------------- 5------ 5--|---- 7-------- 6---- 6-------- 6|
A|--------------------------------|------ 8------------------------|
E| 5------ 5------ 6------------ 7|------------ 0 0-------- 6------|
http://classicalguitartablature.blogspot.com/
E|--------------------------------|--------------------------------|
B|---- 5--------------------------|------------------------------ 7|
G|---- 6------ 6------ 6----------|---- 7-------- 6---- 7-------- 6|
D|---- 6-------------- 5----------|---- 7-------- 6---- 6-------- 6|
A|--------------------------------|-------- 8----------------------|
E| 5------ 5------ 6------ 6---- 7|---------------- 0------ 6---- 5|
http://classicalguitartablature.blogspot.com/
http://classicalguitartablature.blogspot.com/
E|--------------------------------|--------------------------------|
B|---- 5----------10-- 9----------|12--10----------12--12--10------|
G|---- 6---------- 7-- 7----------|11---- 8-------- 9-- 9--11------|
D|---- 6---------- 7-- 7----------|10--10---------- 9------10------|
A|--------------------------------|------------------------11------|
E|-------- 5------ 7------ 7------|11------ 8------ 9--------------|
http://classicalguitartablature.blogspot.com/
E| 9------ 9----------------------|--------------------------------|
B|10------10------------------10--|----10--------12----12--10------|
G|10----------10-------------- 9--|---- 9-------- 9---- 9-- 9------|
D|---------------------------- 8--|-------------- 9---- 9-- 8------|
A|10------------------------------|--------------------------------|
E|----------------10-- 9------ 8--|-------- 8------ 9------ 8------|
http://classicalguitartablature.blogspot.com/
E|---- 7---------- 5--------------|---- 4--------------------------|
B| 9-- 5---------- 7------ 7------| 5-- 5-------- 7---- 7-- 3------|
G| 7-- 4---------- 6------ 6------| 7-- 4-------- 7---- 7-- 4------|
D| 7---------------------- 7------| 6-------------- 6-- 6-- 3------|
A|-------- 4------ 5------ 6------| 7------ 5----------------------|
E| 7------------------------------|---------------- 7-- 7-- 4------|
http://classicalguitartablature.blogspot.com/
E|--------------------------------|--------------------------------|
B| 2------------------------------|---------------------------- 5--|
G| 3------ 3------ 4------ 4------| 3------ 4------ 6---- 7--------|
D|---- 2------ 2------ 2----------| 2------ 2------ 4---- 5--------|
A| 4------------------------------|--------------------------------|
E|---------------- 3--------------| 2------ 4------ 5---- 6--------|
http://classicalguitartablature.blogspot.com/
E|--------------------------------|--------------------------------|
B| 7-- 7---- 7---- 3-- 3-- 3------|--------------------------------|
G| 7-- 7---- 6-- 4---- 4-- 4---- 4|---- 4---- 4-- 2------ 1--------|
D| 7-- 7---- 5---- 4-- 4-- 4------| 2-- 2---- 2-- 1------ 0--------|
A|--------------------------------|--------------------------------|
E| 7------ 6------ 5---- 4-- 4----| 3---- 2---- 2-- 1------ 0---- 5|
http://classicalguitartablature.blogspot.com/
E|--------------------------------|--------------------------------|
B|--------------------------------|------------------------------ 7|
G|---- 2------ 2------ 2------ 2--|---- 2------ 2------ 2------ 2 6|
D|---- 2------ 2------ 4------ 4--|---- 2------ 2------ 2------ 3 6|
A|-------------- 5------ 5--------|-------- 3-------------- 1------|
E|-------- 5----------------------| 3-------------- 1--------------|
http://classicalguitartablature.blogspot.com/
E|--------------------------------|--------------------------------|
B|---- 5--------------------------|------------------------------ 7|
G|---- 6------ 6------ 6----------|---- 7-------- 6---- 7-------- 6|
D|---- 6-------------- 5----------|---- 7-------- 6---- 6-------- 6|
A|--------------------------------|-------- 8----------------------|
E| 5------ 5------ 6------ 6---- 7|---------------- 0------ 6------|
http://classicalguitartablature.blogspot.com/
E|--------------------------------|--------------------------------|
B|---- 5--------------------------|------------------------------ 7|
G|---- 6------ 6------ 6----------|---- 7-------- 6---- 7-------- 6|
D|---- 6-------------- 5----------|---- 7-------- 6---- 6-------- 6|
A|--------------------------------|-------- 8----------------------|
E| 5------ 5------ 6------ 6---- 7|---------------- 0------ 6---- 5|
http://classicalguitartablature.blogspot.com/
E|--------------------------------|--------------------------------|
B|---- 5----------10-- 9----------|12--10----------12--12--10------|
G|---- 6---------- 7-- 7----------|11---- 8-------- 9-- 9--11------|
D|---- 6---------- 7-- 7----------|10--10---------- 9------10------|
A|--------------------------------|------------------------11------|
E|-------- 5------ 7------ 7------|11------ 8------ 9--------------|
http://classicalguitartablature.blogspot.com/
E| 9------ 9----------------------|--------------------------------|
B|10------10------------------10--|----10--------12----12--10------|
G|10----------10-------------- 9--|---- 9-------- 9---- 9-- 9------|
D|---------------------------- 8--|-------------- 9---- 9-- 8------|
A|10------------------------------|--------------------------------|
E|----------------10-- 9------ 8--|-------- 8------ 9------ 8------|
http://classicalguitartablature.blogspot.com/
E|---- 7---------- 5--------------|---- 4--------------------------|
B| 9-- 5---------- 7------ 7------| 5-- 5-------- 7---- 7-- 3------|
G| 7-- 4---------- 6------ 6------| 7-- 4-------- 7---- 7-- 4------|
D| 7---------------------- 7------| 6-------------- 6-- 6-- 3------|
A|-------- 4------ 5------ 6------| 7------ 5----------------------|
E| 7------------------------------|---------------- 7-- 7-- 4------|
http://classicalguitartablature.blogspot.com/
E|--------------------------------|--------------------------------|
B| 2------------------------------|---------------------------- 5--|
G| 3------ 3------ 4------ 4------| 3------ 4------ 6---- 7--------|
D|---- 2------ 2------ 2----------| 2------ 2------ 4---- 5--------|
A| 4------------------------------|--------------------------------|
E|---------------- 3--------------| 2------ 4------ 5---- 6--------|
http://classicalguitartablature.blogspot.com/
E|--------------------------------|--------------------------------|
B| 7-- 7---- 7---- 3-- 3-- 3------|--------------------------------|
G| 7-- 7---- 6-- 4---- 4-- 4---- 4|---- 4---- 4-- 2------ 1--------|
D| 7-- 7---- 5---- 4-- 4-- 4------| 2-- 2---- 2-- 1------ 0--------|
A|--------------------------------|--------------------------------|
E| 7------ 6------ 5---- 4-- 4----| 3---- 2---- 2-- 1------ 0------|
http://classicalguitartablature.blogspot.com/
E|--------------------------------|--------------------------------|
B|-------------------- 5----------|-------------------- 5-------- 3|
G| 2------ 2---------- 5----------|------ 6------------ 6----------|
D| 2------ 2---------- 4----------|------ 5------------ 5----------|
A|------------ 4-- 5--------------|--------------------------------|
E| 5------------------------------| 5-------------- 6--------------|
http://classicalguitartablature.blogspot.com/
E|-------------- 4---- 7----------| 5------------------------------|
B|---- 3-- 5---- 7---- 7----------| 5-- 5--------10----10------ 5--|
G| 2-- 2-- 4---- 6---- 7----------| 6-- 6-------- 9---- 9------ 6--|
D| 4-- 4-- 6----------------------|-------------- 7------------ 5--|
A| 2------ 4---- 5---- 7----------|-------- 8------ 9--------------|
E|------------------------ 0------| 5-------------------- 6--------|
http://classicalguitartablature.blogspot.com/
E|---------------- 7-- 7-- 4------| 5-- 5--------------------------|
B| 3-- 3-- 3------ 5-- 5-- 3------| 5-- 5--------------10-- 5------|
G| 2-- 2-- 2------ 6-- 6-- 4------| 6------------------ 9-- 6------|
D| 4-- 4-- 4----------------------|-------------------- 7-- 5------|
A| 2------------------------------|-------- 8-- 0 9----------------|
E|-------- 5------ 4------ 2-- 0--| 5---------------------- 6------|
http://classicalguitartablature.blogspot.com/
E|-------------- 4-------- 7------| 5-- 5-- 5----------------------|
B| 3-- 3-- 5---- 2-------- 7------| 5-- 5-- 5------ 5------ 5------|
G| 2-- 2-- 4------ 4------ 7------| 4-- 4-- 4------ 3------ 3------|
D| 4-- 4-- 4----------------------|---------------- 2------ 5------|
A| 2-- 2---------------------- 5--| 4---------------------- 3------|
E|-------- 5------ 4-- 2-- 0------|-------- 3------ 2--------------|
http://classicalguitartablature.blogspot.com/
E| 2---- 2---- 2------------------|--------------------------------|
B| 3---- 3---- 3-- 3------ 3------|---------------------- 5------ 3|
G| 2-- 2------ 2-- 4-- 4-- 4------|------ 2-------------- 6--------|
D|---------------- 2------ 2------|------ 2-------------- 5--------|
A| 2------------------------------|--------------------------------|
E|-------- 5------ 4-- 2-- 0------| 5-------------- 6--------------|
http://classicalguitartablature.blogspot.com/
E|-------------- 4---- 7----------| 5------------------------------|
B|---- 3-- 5---- 7---- 7----------| 5-- 5--------10----10------ 5--|
G| 2-- 2-- 4---- 6---- 7----------| 6-- 6-------- 9---- 9------ 6--|
D| 4-- 4-- 6----------------------|-------------- 7------------ 5--|
A| 2------ 4---- 5---- 7----------|-------- 8------ 9--------------|
E|------------------------ 0------| 5-------------------- 6--------|
http://classicalguitartablature.blogspot.com/
E|---------------- 7-- 7-- 4------| 5-- 5--------------------------|
B| 3-- 3-- 3------ 5-- 5-- 3------| 5-- 5--------------10-- 5------|
G| 2-- 2-- 2------ 6-- 6-- 4------| 6------------------ 9-- 6------|
D| 4-- 4-- 4----------------------|-------------------- 7-- 5------|
A| 2------------------------------|-------- 8-- 0 9----------------|
E|-------- 5------ 4------ 2-- 0--| 5---------------------- 6------|
http://classicalguitartablature.blogspot.com/
E|-------------- 4-------- 7------| 5-- 5-- 5----------------------|
B| 3-- 3-- 5---- 2-------- 7------| 5-- 5-- 5------ 5------ 5------|
G| 2-- 2-- 4------ 4------ 7------| 4-- 4-- 4------ 3------ 3------|
D| 4-- 4-- 4----------------------|---------------- 2------ 5------|
A| 2-- 2---------------------- 5--| 4---------------------- 3------|
E|-------- 5------ 4-- 2-- 0------|-------- 3------ 2--------------|
http://classicalguitartablature.blogspot.com/
E| 2---- 2---- 2------------------|--------------------------------|
B| 3---- 3---- 3-- 3------ 3------|-------------------- 5----------|
G| 2-- 2------ 2-- 4-- 4-- 4------|------ 2------------ 5----------|
D|---------------- 2------ 2------|------ 2------------ 4----------|
A| 2------------------------------|--------------------------------|
E|-------- 5------ 4-- 2-- 0------| 5---------- 5-- 4--------------|
http://classicalguitartablature.blogspot.com/
E| 5-- 5--------------------------|--------------------------------|
B| 5-- 5--------------10----------|----10--------------10----------|
G| 5------------------ 9----------|---- 9-------------- 9----------|
D|-------------------- 7----------|----10--------------10----------|
A|------------------------ 7------|10------10---- 9----------------|
E| 5-------- 7---- 8--------------|--------------------------------|
http://classicalguitartablature.blogspot.com/
E| 8-- 8--------------------------|-------------------- 8----------|
B| 8-- 8--------------------------|---- 6-------------- 8----------|
G| 8------------------------------|---- 8-------------- 8----------|
D|--------------------------------|---- 8--------------------------|
A| 8------------------------------|-------------------- 8----------|
E|-------- 5------ 6------ 7---- 8|-------------- 8----------------|
http://classicalguitartablature.blogspot.com/
E|---- 7--------------------------|-------------------- 7----------|
B|---- 7-------------- 5----------|---- 5-------------- 6----------|
G|---- 7------ 7------ 5----------|---- 7-------------- 7----------|
D|-------------------- 7----------|---- 6--------------------------|
A|---------------- 8---------- 8--| 7------------------------------|
E| 7------ 7----------------------|---------------- 6--------------|
http://classicalguitartablature.blogspot.com/
E|---- 5--------------------------|--------------------------------|
B|---- 5------ 2-- 2------ 2---- 2|------------ 2------ 5------ 5 7|
G|---- 4------ 2-- 2------ 2---- 1|------------ 2------ 4------ 4 6|
D|------------ 2-- 4------ 4------| 0---------- 0------ 2------ 2 6|
A| 0---------- 4-- 5------ 6------|--------------------------------|
E|--------------------------------| 0------ 2------ 3---- 4--------|
http://classicalguitartablature.blogspot.com/
E|--------------------------------|--------------------------------|
B|---- 5--------------------------|------------------------------ 7|
G|---- 6------ 6------ 6----------|---- 7-------- 6---- 7-------- 6|
D|---- 6-------------- 5----------|---- 7-------- 6---- 6-------- 6|
A|--------------------------------|-------- 8----------------------|
E| 5------ 5------ 6------ 6---- 7|---------------- 0------ 6------|
http://classicalguitartablature.blogspot.com/
E|--------------------------------|--------------------------------|
B|---- 5--------------------------|------------------------------ 7|
G|---- 6------ 6------ 6----------|---- 7-------- 6---- 7-------- 6|
D|---- 6-------------- 5----------|---- 7-------- 6---- 6-------- 6|
A|--------------------------------|-------- 8----------------------|
E| 5------ 5------ 6------ 6---- 7|---------------- 0------ 6---- 5|
http://classicalguitartablature.blogspot.com/
E|--------------------------------|--------------------------------|
B|---- 5----------10-- 9----------|12--10----------12--12--10------|
G|---- 6---------- 7-- 7----------|11---- 8-------- 9-- 9--11------|
D|---- 6---------- 7-- 7----------|10--10---------- 9------10------|
A|--------------------------------|------------------------11------|
E|-------- 5------ 7------ 7------|11------ 8------ 9--------------|
http://classicalguitartablature.blogspot.com/
E| 9------ 9----------------------|--------------------------------|
B|10------10------------------10--|----10--------12----12--10------|
G|10----------10-------------- 9--|---- 9-------- 9---- 9-- 9------|
D|---------------------------- 8--|-------------- 9---- 9-- 8------|
A|10------------------------------|--------------------------------|
E|----------------10-- 9------ 8--|-------- 8------ 9------ 8------|
http://classicalguitartablature.blogspot.com/
E|---- 7---------- 5--------------|---- 4--------------------------|
B| 9-- 5---------- 7------ 7------| 5-- 5-------- 7---- 7-- 3------|
G| 7-- 4---------- 6------ 6------| 7-- 4-------- 7---- 7-- 4------|
D| 7---------------------- 7------| 6-------------- 6-- 6-- 3------|
A|-------- 4------ 5------ 6------| 7------ 5----------------------|
E| 7------------------------------|---------------- 7-- 7-- 4------|
http://classicalguitartablature.blogspot.com/
E|--------------------------------|--------------------------------|
B| 2------------------------------|---------------------------- 5--|
G| 3------ 3------ 4------ 4------| 3------ 4------ 6---- 7--------|
D|---- 2------ 2------ 2----------| 2------ 2------ 4---- 5--------|
A| 4------------------------------|--------------------------------|
E|---------------- 3--------------| 2------ 4------ 5---- 6--------|
http://classicalguitartablature.blogspot.com/
E|--------------------------------|--------------------------------|
B| 7-- 7---- 7---- 3-- 3-- 3------|--------------------------------|
G| 7-- 7---- 6-- 4---- 4-- 4---- 4|---- 4---- 4-- 2------ 1--------|
D| 7-- 7---- 5---- 4-- 4-- 4------| 2-- 2---- 2-- 1------ 0--------|
A|--------------------------------|--------------------------------|
E| 7------ 6------ 5---- 4-- 4----| 3---- 2---- 2-- 1------ 0------|
http://classicalguitartablature.blogspot.com/
E| 4-- 4--------------------------|---------------------- 0------ 9|
B| 3-- 3------ 5------ 5------ 5 2|---- 2------ 3-------- 2------ 7|
G| 4-- 4------ 4------ 4-------- 3|---- 3------ 3---------- 0---- 7|
D|------------ 3------ 3-------- 2|---- 2------ 2------------------|
A| 4------------------------------|------------ 3-------- 1--------|
E|-------------- 3-------- 3------| 2------------------------------|
http://classicalguitartablature.blogspot.com/
E|-------- 9------ 5-- 5----------| 9-- 9------ 9------ 5----------|
B|---- 7-- 9------ 7------ 7------| 7-- 7------ 9------ 5----------|
G|---- 7-- 9------ 6-- 6-- 6------| 7-- 7------ 7------ 5----------|
D|------------------------ 7------|--------------------------------|
A|---------------- 5------ 6------| 7------------------------------|
E| 7------ 9----------------------|---- 7-------- 6------ 4--------|
http://classicalguitartablature.blogspot.com/
E|-- 5----------------------------|--------------------------------|
B|-- 4----------------------------|--------------------------------|
G|-- 4----------------------------|--------------------------------|
D|--------------------------------|--------------------------------|
A|--------------------------------|--------------------------------|
E|-- 5----------------------------|--------------------------------|
http://classicalguitartablature.blogspot.com/

1 ความคิดเห็น:

FarMhousE | 16 มิถุนายน 2553 19:07

CheekToCheek-32kbps

แสดงความคิดเห็น