To celebrate the anniversary, I am giving you (finally...) : iPhone LickByNeck !!!!!!

Cherokee

Crooner's favorite fingerstyle solo guitar arrangement played in the key of C
http://classicalguitartablature.blogspot.com/

http://classicalguitartablature.blogspot.com/
Cherokee played in the key of G.
http://classicalguitartablature.blogspot.com/
E|-------------------- 5------ 8--|---- 8--------------------------|
B| 5------------ 8------------11--|----11--------------10-------- 8|
G| 4------------ 5------------10--|----10-------------- 9-------- 9|
D| 5------------ 5----------------|-------------------- 8-------- 7|
A| 3------ 5---- 7------------10--|--------------------------------|
E|--------------------------------|------10------ 8----------------|
http://classicalguitartablature.blogspot.com/
E|-------------------- 3----------|--------------------------------|
B|---- 8---------- 5------------ 5|------ 5------------ 3----------|
G|---- 9---------- 5------------ 5|------ 5------------ 3----------|
D|---- 7---------- 3------------ 6|------ 6------------ 3----------|
A| 8------------------------------|--------------------------------|
E|-------- 8---- 5-------------- 6|-------------- 4----------------|
http://classicalguitartablature.blogspot.com/
E|------------------------------12|----12-------------- 8----------|
B|------------------ 8----------10|----10--------------10----------|
G| 5-- 5-------- 9--------------11|----10-------------- 9----------|
D| 5-- 5-------- 7----------------|--------------------------------|
A|---------------------- 6--------|--------12---- 9----------------|
E| 5------ 7---- 8--------------10|--------------------------------|
http://classicalguitartablature.blogspot.com/
E| 5-- 5--------------------------|--------------------------------|
B| 6-- 6-------- 8---- 5------ 3--|------ 3------ 4-------------- 5|
G| 5---- 5------ 6---- 6------ 5--|------ 5------ 4-------------- 4|
D|-------- 7---- 5---- 5------ 3--|---- 3-------- 3----------------|
A| 5------------------------------|---------------------- 4--------|
E|-------------- 5------------ 4--|-------------- 3----------------|
http://classicalguitartablature.blogspot.com/
E|-------------------- 5------ 8--|---- 8--------------------------|
B|---- 5-------- 8---- 8------11--|----11--------10-------------- 8|
G|---- 4-------- 5------------10--|-------------- 9-------------- 9|
D| 5------------ 5----------------|-------------- 8-------------- 7|
A| 3------ 5---- 7------------10--|---------------------- 9------ 8|
E|--------------------------------|--------10---- 8----------------|
http://classicalguitartablature.blogspot.com/
E|-------------------- 3----------|--------------------------------|
B|---- 8-------- 5---- 5-------- 5|---- 5-------------- 3-------- 5|
G|---- 9-------- 5-------------- 5|---- 5-------------- 3-------- 5|
D|---- 7-------- 3-------------- 6|---- 6-------------- 3-------- 5|
A|--------------------------------|--------------------------------|
E|------ 8------ 5------ 5------ 6|------ 6------ 4------------ 4 5|
http://classicalguitartablature.blogspot.com/
E|----------------------------12--|----12-------------- 8-------- 5|
B|-------------------- 8------12--|----12--------------10-------- 6|
G|---- 5---------- 9----------11--| 0--11-------------- 9-------- 5|
D|-------------- 7----------------|--------------------------------|
A|--------------------------------|------12------ 9----------------|
E|------ 5---- 8--------------10--|--------------------------------|
http://classicalguitartablature.blogspot.com/
E|---- 5-------- 3---- 5------ 8--|------------------------------13|
B|---- 6-------- 3---- 5------ 8--|--------------------12--------11|
G|---- 5-------- 4---- 4------ 7--|--------------------12--------11|
D|-------------------- 3----------|--------------------10----------|
A| 5------------------ 4----------|--------------------------------|
E|-------- 5---- 3------------ 8--|------10------12------12------11|
http://classicalguitartablature.blogspot.com/
E|----13--------13----11------11--|---- 8------------------------11|
B|----11--------11----11------ 9--|---- 9------ 9---------------- 9|
G|----11--------11----11------10--|----10------ 8---------------- 9|
D|--------------------------------|------------ 8------------------|
A|------12------11----------------|------------ 8------------------|
E|---------------------------- 9--|------------------------ 8------|
http://classicalguitartablature.blogspot.com/
E|---------------------- 9--------|------------------------------ 9|
B|----12------ 9---------------- 7|--------------------11-------- 7|
G|----10------ 9---------------- 8|---- 8--------------11-------- 7|
D|----10------ 9---------------- 8|-------------------- 9----------|
A|----10------ 9------------------|--------------------------------|
E| 9---------------------------- 7|-------- 9----11----------------|
http://classicalguitartablature.blogspot.com/
E|-------------- 9------ 7------ 7|---- 4------------------------ 7|
B|-------------- 7------ 8------ 5|---- 5------ 5---------------- 5|
G|-------------- 7------ 7------ 6|---- 6------ 4---------------- 5|
D|--------------------------------|------------ 4------ 4----------|
A|------ 8------ 7----------------|------------ 4-------- 7--------|
E| 7---------------------- 6---- 5|---- 5------------------------ 5|
http://classicalguitartablature.blogspot.com/
E|-------------------- 5----------|--------------------------------|
B|------ 8------ 5---- 5------ 3--|------ 3------------ 4-------- 5|
G|------ 6------ 5---- 5------ 5--|------ 5------------ 4-------- 4|
D|------ 6------ 5------------ 3--|---- 3-------------- 3-------- 5|
A|-------- 6---- 5----------------|------------------------------ 3|
E|---------------------------- 4--|-------------- 3----------------|
http://classicalguitartablature.blogspot.com/
E|-------------------- 5------ 8--|---- 8--------------------------|
B|-------------- 8---- 8------11--|----11--------10----------------|
G|-------------- 5------------10--|----10-------- 9----------------|
D|-------------- 5----------------|-------------- 8---- 8----------|
A|------ 5------ 7------------10--|------------------------ 9------|
E|--------------------------------|--------10---- 8----------------|
http://classicalguitartablature.blogspot.com/
E|-------------------- 3----------|--------------------------------|
B| 8-- 8-------- 5---- 5------ 5--|---- 5-------------- 3----------|
G| 9-- 9-------- 5------------ 5--|---- 5-------------- 3----------|
D| 7-- 7---------- 3---------- 6--|---- 6-------------- 4----------|
A| 8------------------------------|--------------------------------|
E|-------- 8------ 5---------- 6--|------------ 6 4----------------|
http://classicalguitartablature.blogspot.com/
E|----------------------------12--|----12-------------- 8-------- 5|
B| 5------------------ 8------12--|----12--------------10-------- 6|
G| 5-- 5---------- 9----------11--|-------------------- 9----------|
D| 5-- 5---------- 7--------------|--------------------------------|
A|--------------------------------|------12------ 9----------------|
E| 5------ 7---- 8------------10--|--------------------------------|
http://classicalguitartablature.blogspot.com/
E|---- 5------------------------ 8|------------ 8-------- 8--------|
B|---- 6------ 8------10-------- 8|------------ 6-------- 6--------|
G| 5-- 5------ 7------ 7-------- 7|------------ 6-------- 5--------|
D|------------ 9------ 7-------- 7|------------------------ 5------|
A| 5----------10------ 8-------- 7|------------ 6---------- 5------|
E|--------------------------------|--------------------------------|
http://classicalguitartablature.blogspot.com/
E|-------------- 8---------- 8----|------ 8---------------------- 8|
B|-------------- 8---------- 5----|------ 4----------------------10|
G|-------------- 7------------ 6--|------ 5----------------------10|
D|--------------------------------|--------------------------------|
A|--------------------------------|------------------------------10|
E|---------------- 6---------- 5--|------ 4------------------------|
http://classicalguitartablature.blogspot.com/
E|---------- 8---------- 8--------|-------------- 8------ 7--------|
B|----------10---------- 9--------|-------------- 9------ 7--------|
G|----------10---------- 8--------|-------------- 8------ 9--------|
D|--------------------------------|--------------------------------|
A|--------------------------------|--------------------------------|
E|----------10---------- 9--------|-------------- 9------ 8--------|
http://classicalguitartablature.blogspot.com/
E|--------------------------------|--------------------------------|
B|--------------------------------|--------------------------------|
G|--------------------------------|--------------------------------|
D|--------------------------------|--------------------------------|
A|--------------------------------|--------------------------------|
E|--------------------------------|--------------------------------|
http://classicalguitartablature.blogspot.com/

0 ความคิดเห็น:

แสดงความคิดเห็น