To celebrate the anniversary, I am giving you (finally...) : iPhone LickByNeck !!!!!!

Cherry Pink And Apple Blossom White

Popular tune fingerstyle chord melody guitar arrangement played in the key of Eb.
http://classicalguitartablature.blogspot.com/
http://classicalguitartablature.blogspot.com/
Cherry Pink And Apple Blossom White played in the key of Eb.
http://classicalguitartablature.blogspot.com/
E|---------- 3-- 6-- 4-- 3---- 4--| 3---- 1---- 8------------------|
B|-------- 4---- 4-- 4---- 4-- 4--| 1---------- 9---------- 9------|
G|---- 3-------- 3-- 3---- 3-- 3--|------ 1----10--------10--------|
D|--------------------------------|-- 1--------------10--------10--|
A|--------------------------------|--------------------------------|
E| 4-------------- 3------ 2------| 1--------------11--------------|
http://classicalguitartablature.blogspot.com/
E|------------------------ 1------|--------------------------------|
B|------11------ 8-------- 1------| 4------ 4----------------------|
G|----10---------------- 5--------| 3---- 3------------ 5------ 5--|
D|---- 8---- 8-------- 5---- 1----|---- 5------ 5------ 5------ 5--|
A|---------------- 6--------------|--------------------------------|
E|10---------------------- 1------| 3-------------- 5------ 5------|
http://classicalguitartablature.blogspot.com/
E|---------- 3-- 6-- 4-- 3---- 4--| 3---- 1---- 4------------------|
B|-------- 4---- 4-- 4---- 4-- 4--| 1---------- 2------ 2-- 2-- 2--|
G|---- 3-------- 3-- 3---- 3-- 3--|------ 1---- 3------ 3-- 3-- 3--|
D|--------------------------------|---- 1-------------- 2-- 2-- 2--|
A|--------------------------------|------------------------------ 6|
E| 4-------------- 3------ 2------| 1-------------- 0--------------|
http://classicalguitartablature.blogspot.com/
E|-- 6-- 8--10-- 8-------------- 6|--------------------------------|
B|-- 6------ 9--11--11-- 9-- 8----| 8------ 8----------------------|
G|-- 5------ 8--10--10-- 8-- 8----|------ 7------------ 5-- 5------|
D|------------------ 8-- 6---- 6--|-- 8-------- 8---- 3---- 3------|
A|--------------------------------|--------------------------------|
E|----------------10-- 9-- 8-- 7--| 6-------------- 5---------- 5--|
http://classicalguitartablature.blogspot.com/
E|---------- 3-- 6-- 4-- 3---- 4--| 3---- 1---- 8------------------|
B|-------- 4---- 4-- 4---- 4-- 4--| 1---------- 9---------- 9------|
G|---- 3-------- 3-- 3---- 3-- 3--|------ 1----10--------10--------|
D|--------------------------------|-- 1--------------10--------10--|
A|--------------------------------|--------------------------------|
E| 4-------------- 3------ 2------| 1--------------11--------------|
http://classicalguitartablature.blogspot.com/
E|------------------------ 1------|--------------------------------|
B|------11------ 8-------- 1------| 4------ 4----------------------|
G|----10---------------- 5--------| 3---- 3------------ 3------ 3--|
D|---- 8---- 8-------- 5---- 1----|---- 5------ 5------ 3------ 3--|
A|---------------- 6--------------|--------------------------------|
E|10---------------------- 1------| 3------------ 4-------- 4------|
http://classicalguitartablature.blogspot.com/
E|------------ 3-- 6-- 4 3---- 4--| 3---- 1---- 4------------------|
B|------ 4-------- 6---- 4---- 4--| 1---------- 2------ 2-- 2-- 2--|
G|---- 3 5------ 4-------- 3-- 3--|------ 1---- 3------ 3-- 3-- 3--|
D|---- 5 5------------------------|---- 1-------------- 2-- 2-- 2--|
A|--------------------------------|------------------------------ 6|
E| 6------ 5---- 4-------- 3-- 2--| 1-------------- 0--------------|
http://classicalguitartablature.blogspot.com/
E|-- 6-- 8--10-- 8-------------- 6|--------------------------------|
B|-- 6------ 9--11--11-- 9-- 8----| 8------ 8----------------------|
G|-- 5------ 8--10--10-- 8-- 8----|------ 7------------ 5-- 5------|
D|------------------ 8-- 6---- 6--|-- 8-------- 8---- 3---- 3------|
A|--------------------------------|--------------------------------|
E|----------------10-- 9-- 8-- 7--| 6-------------- 5---------- 5--|
http://classicalguitartablature.blogspot.com/
E|---------- 3-- 6-- 4-- 3---- 4--| 3---- 1---- 8------------------|
B|-------- 4---- 4-- 4---- 4-- 4--| 1---------- 9---------- 9------|
G|---- 3-------- 3-- 3---- 3-- 3--|------ 1----10--------10--------|
D|--------------------------------|-- 1--------------10--------10--|
A|--------------------------------|--------------------------------|
E| 4-------------- 3------ 2------| 1--------------11--------------|
http://classicalguitartablature.blogspot.com/
E|------------------------ 1------|--------------------1111----11--|
B|------11------ 8-------- 1------| 4------------------11--11-- 9--|
G|----10---------------- 5--------| 3---- 3------------12--10-- 8--|
D|---- 8---- 8-------- 5---- 1----|---- 1------ 1-------------- 7--|
A|---------------- 6--------------|--------------------------------|
E|10---------------------- 1------| 3------ 1----11-------- 9-- 7--|
http://classicalguitartablature.blogspot.com/
E|11--1010----10---- 8-- 8---- 8 8|------------------ 8---- 8 8-- 8|
B| 8-- 8------ 8---- 8-- 8---- 8 8|----1111--11------10----1010-- 6|
G| 7-- 7 7---- 7---- 7-- 7---- 7--| 8-- 8 8---- 8------ 9-- 9 9-- 7|
D|------------------ 6-- 6---- 6--|------ 8---- 8------------------|
A|------------------------------10|-------------- 9-------------- 8|
E| 6------------ 4----------------|--------------------------------|
http://classicalguitartablature.blogspot.com/
E|---- 6 6---- 6------------------|------------------11--11----1111|
B|---- 6-- 6-------- 9-- 9-- 9-- 9|-- 8---- 8-- 8----11--11----11 8|
G|-------- 7-- 7---- 7-- 7-- 7-- 7|-------- 7-- 7----10--10----10 8|
D|-------- 6-- 6---- 9-- 9-- 9-- 8|---- 8------ 8-------- 9--------|
A|-------------- 7-------------- 6|--------------------------------|
E|--------------------------------|--------------10-------- 9------|
http://classicalguitartablature.blogspot.com/
E|--10--10--10------ 8-- 8-- 8----| 8-- 6 6---- 6---- 8-- 8------ 8|
B|-- 8-- 9-- 9-------- 8 8-- 8----| 6---- 4---------- 9-- 9---- 911|
G|------ 7---- 7---- 8-- 8-- 8----| 5---- 5---- 3---- 8--10----1010|
D|---- 8-------------- 8----------|------ 5---- 5--------10--------|
A|--------------------------------|-------------- 8----------------|
E| 8---- 7-------- 6---- 5--------| 4---- 3----------------11----10|
http://classicalguitartablature.blogspot.com/
E|--------------------------------|------------ 3-- 6-- 4 3---- 4--|
B|--11--11--11------ 9-- 8-- 6-- 4|------ 4-------- 6---- 4---- 4--|
G|--10--10----10---- 8-- 8-- 8-- 3|-- 3-- 5------ 4-------- 3-- 3--|
D|------ 8---- 8------ 6 6-- 6-- 5|-- 5-- 5------------------------|
A|--------------------------------|--------------------------------|
E|------ 9-------- 8---- 7------ 6|-------- 5---- 4-------- 3-- 2--|
http://classicalguitartablature.blogspot.com/
E| 3---- 1---- 4------------------|-- 6-- 8--10-- 8-------------- 6|
B| 1---------- 2------ 2-- 2-- 2--|-- 6------ 9--11--11-- 9-- 8----|
G|------ 1---- 3------ 3-- 3-- 3--|-- 5------ 8--10--10-- 8-- 8----|
D|---- 1-------------- 2-- 2-- 2--|------------------ 8-- 6---- 6--|
A|------------------------------ 6|--------------------------------|
E| 1-------------- 0--------------|----------------10-- 9-- 8-- 7--|
http://classicalguitartablature.blogspot.com/
E|--------------------------------|---------- 3-- 6-- 4-- 3---- 4--|
B| 8------ 8----------------------|-------- 4---- 4-- 4---- 4-- 4--|
G|------ 7------------ 5-- 5------|---- 3-------- 3-- 3---- 3-- 3--|
D|-- 8-------- 8---- 3---- 3------|--------------------------------|
A|--------------------------------|--------------------------------|
E| 6-------------- 5---------- 5--| 4-------------- 3------ 2------|
http://classicalguitartablature.blogspot.com/
E| 3---- 1---- 8------------------|------------------------ 1------|
B| 1---------- 9---------- 9------|------11------ 8-------- 1------|
G|------ 1----10--------10--------|----10---------------- 5--------|
D|-- 1--------------10--------10--|---- 8---- 8-------- 5---- 1----|
A|--------------------------------|---------------- 6--------------|
E| 1--------------11--------------|10---------------------- 1------|
http://classicalguitartablature.blogspot.com/
E|--------------------------------|---------- 3-- 6-- 4-- 3---- 4--|
B| 4------ 4----------------------|-------- 4---- 4-- 4---- 4-- 4--|
G| 3---- 3------------ 5------ 5--|---- 3-------- 3-- 3---- 3-- 3--|
D|---- 5------ 5------ 5------ 5--|--------------------------------|
A|--------------------------------|--------------------------------|
E| 3-------------- 5------ 5------| 4-------------- 3------ 2------|
http://classicalguitartablature.blogspot.com/
E| 3---- 1---- 8------------------|------------------------ 1------|
B| 1---------- 9---------- 9------|------11------ 8-------- 1------|
G|------ 1----10--------10--------|----10---------------- 5--------|
D|-- 1--------------10--------10--|---- 8---- 8-------- 5---- 1----|
A|--------------------------------|---------------- 6--------------|
E| 1--------------11--------------|10---------------------- 1------|
http://classicalguitartablature.blogspot.com/
E|--------------------------------|------------ 3-- 6-- 4 3---- 4--|
B| 4------ 4----------------------|------ 4-------- 6---- 4---- 4--|
G| 3---- 3------------ 3------ 3--|---- 3 5------ 4-------- 3-- 3--|
D|---- 5------ 5------ 3------ 3--|---- 5 5------------------------|
A|--------------------------------|--------------------------------|
E| 3------------ 4-------- 4------| 6------ 5---- 4-------- 3-- 2--|
http://classicalguitartablature.blogspot.com/
E| 3------ 1----------------------|--------------------------------|
B| 1------ 1-- 4-------- 4-- 4----| 4------------------------------|
G| 1-- 1-- 1-- 3-------- 3-- 4----| 5------------------------------|
D|---- 1-- 0-- 5-------- 5-- 5----| 5------------------------------|
A|------------ 6-------- 6-- 6----| 6------------------------------|
E| 1------ 0----------------------|--------------------------------|
http://classicalguitartablature.blogspot.com/

0 ความคิดเห็น:

แสดงความคิดเห็น