To celebrate the anniversary, I am giving you (finally...) : iPhone LickByNeck !!!!!!

Close To You

Carpenters' hit fingerstyle solo guitar arrangement played in the key of A.


http://classicalguitartablature.blogspot.com/
Close To You played in the key of A.
Classical Guitar Tablature http://classicalguitartablature.blogspot.com/
E|--------------------------------|---------------------------- 2--|
B|------------------------------ 5|------------ 5-- 5-- 3 5--------|
G|---------------------- 2------ 2|---- 2------ 2-- 2-- 2 4--------|
D|---------------- 4--------------| 4-- 4------ 2-- 4-- 4----------|
A|--------------------------------| 5------ 4------ 2--------------|
E|--------------------------------|---------------------- 5--------|
Classical Guitar Tablature http://classicalguitartablature.blogspot.com/
E|---------------------------- 4--|--------------------------------|
B| 2-- 2-------------- 2-- 5-- 5--|---- 5-------------- 2 5----10--|
G| 4-- 4-------------- 4-- 6-- 4--|---- 4-------------- 4 6---- 9--|
D| 4-- 4-------------- 3-- 6------|---- 6-------------- 2 6---- 7--|
A|-------- 2-- 3-- 4--------------|-------- 2-- 3 4------ 7--------|
E| 4---------------------- 7------| 4------------------------------|
Classical Guitar Tablature http://classicalguitartablature.blogspot.com/
E|--------------------------------|--------------------------------|
B|----10-- 9-- 7------------------|------------ 5------------------|
G|---- 9 7---- 6------ 6------ 6--|---- 2------ 2------ 2------ 4--|
D|---- 7 9---- 7------ 7------ 7 4|---- 2------ 4------ 4------ 4--|
A| 9------ 8------ 7------ 6---- 5|-------- 4------ 2--------------|
E|--------------------------------|------------------------ 5------|
Classical Guitar Tablature http://classicalguitartablature.blogspot.com/
E|--------------------------------|--------------------------------|
B|------------ 5------ 5-------- 9|---- 5------ 2------------------|
G|---- 2------ 4------ 4------ 4 7|---- 5------ 2------ 2------ 2--|
D| 4-- 4------ 6------ 6------ 4--| 7-- 4------ 2-------------- 3--|
A|---------------- 5---- 4--------|--------------------------------|
E| 2------ 0----------------------| 7------ 4---- 5------ 3--------|
Classical Guitar Tablature http://classicalguitartablature.blogspot.com/
E|--------------------------------|---------------------------- 2--|
B|------------------------------ 5|------------ 5-- 5-- 3 5--------|
G| 2---------- 2---------- 2---- 2|---- 2------ 2-- 2-- 2 4--------|
D| 2-- 2------ 1 4---- 4 4---- 4--| 4-- 4------ 2-- 4-- 4----------|
A|---------------------- 6--------| 5------ 4------ 2--------------|
E| 2---- 1-------- 0--------------|---------------------- 5--------|
Classical Guitar Tablature http://classicalguitartablature.blogspot.com/
E|---------------------------- 4--|--------------------------------|
B| 2-- 2-------------- 2-- 5-- 5--|---- 5-------------- 2 5----10--|
G| 4-- 4-------------- 4-- 6-- 4--|---- 4-------------- 4 6---- 9--|
D| 4-- 4-------------- 3-- 6------|---- 6-------------- 2 6---- 7--|
A|-------- 2-- 3-- 4--------------|-------- 2-- 3 4------ 7--------|
E| 4---------------------- 7------| 4------------------------------|
Classical Guitar Tablature http://classicalguitartablature.blogspot.com/
E|--------------------------------|--------------------------------|
B|----10-- 9-- 7------------------|------------ 5------------------|
G|---- 9 7---- 6------ 6------ 6--|---- 2------ 2------ 2------ 4--|
D|---- 7 9---- 7------ 7------ 7 4|---- 2------ 4------ 4------ 4--|
A| 9------ 8------ 7------ 6---- 5|-------- 4------ 2--------------|
E|--------------------------------|------------------------ 5------|
Classical Guitar Tablature http://classicalguitartablature.blogspot.com/
E|--------------------------------|--------------------------------|
B|------------ 5------ 5-------- 9|---- 5------ 2------------------|
G|---- 2------ 4------ 4------ 4 7|---- 5------ 2------ 2------ 2--|
D| 4-- 4------ 6------ 6------ 4--| 7-- 4------ 2-------------- 3--|
A|---------------- 5---- 4--------|--------------------------------|
E| 2------ 0----------------------| 7------ 4---- 5------ 3--------|
Classical Guitar Tablature http://classicalguitartablature.blogspot.com/
E|--------------------------------|--------------------------------|
B|--------------------------------|-------------- 2---- 2----------|
G| 2---------- 2 4---- 4 3---- 3 2|---- 2 4---- 4 2---- 2 4---- 4--|
D| 2-- 2------ 1 5---- 5 4---- 4 4|---- 4 2---- 2 4---- 4 4---- 4--|
A|------------------------ 6------| 5---- 4------ 2----------------|
E| 2---- 1------ 0----------------|------------------------ 5------|
Classical Guitar Tablature http://classicalguitartablature.blogspot.com/
E|--------------------------------|--------------------------------|
B|-------- 0-- 0-- 2-- 2----------|-------- 7-- 7-- 9-- 9-- 7-- 5--|
G| 2-- 2-- 2-- 2-- 2-- 2-- 4-- 4--| 9-- 9-- 9-- 9-- 9-- 9-- 6------|
D| 4-- 4-- 0-- 0-- 2-- 2-- 6------| 9-- 9-- 7-- 7-- 9-- 9-- 4------|
A|------------------------ 5------|--------------------------------|
E| 3------ 1------ 0--------------| 9------ 8------ 7------ 6------|
Classical Guitar Tablature http://classicalguitartablature.blogspot.com/
E| 4------------------ 2---- 4----| 5-- 5---- 5-- 5---- 5 5---- 5 5|
B| 7-- 7---------- 5-- 3---- 4----| 3-- 3---- 5-- 5---- 5 7---- 7 7|
G| 6-- 6---------- 4-- 3---- 3----| 2-- 2---- 4-- 4---- 4 6---- 6 6|
D|---- 4------ 4-- 3--------------|--------------------------------|
A|-------------------------- 3----| 2------ 4-- 4-- 5---- 6------ 7|
E| 5------ 4------ 3---- 2--------|--------------------------------|
Classical Guitar Tablature http://classicalguitartablature.blogspot.com/
E|---- 5 5---- 5 5---- 2 4---- 5 7|--------------------------------|
B|---- 7 6---- 6 3---- 5 5---- 8 7|--------------------------------|
G|---- 6 7---- 7 2---- 4 5---- 7 6|---- 6------ 4-- 4---- 4---- 2--|
D|-------------------- 2 4---- 5--|---- 4------ 4-- 3---- 3---- 2--|
A|-------- 8----------------------| 6-------------- 4--------------|
E|---------------- 2-- 3 4---- 6--|------ 5---- 4-------- 3---- 2--|
Classical Guitar Tablature http://classicalguitartablature.blogspot.com/
E|--------------------------------|---------------------------- 2--|
B|------------------------------ 5|------------ 5-- 5-- 3 5--------|
G| 3---- 2---- 2-------- 2------ 2|---- 2------ 2-- 2-- 2 4--------|
D| 2---- 1---- 1-- 4---- 4--------| 4-- 4------ 2-- 4-- 4----------|
A| 3---- 2-------------- 6--------| 5------ 4------ 2--------------|
E|------------ 1-- 0--------------|---------------------- 5--------|
Classical Guitar Tablature http://classicalguitartablature.blogspot.com/
E|---------------------------- 4--|--------------------------------|
B| 2-- 2-------------- 2-- 5-- 5--|---- 5-------------- 2 5----10--|
G| 4-- 4-------------- 4-- 6-- 4--|---- 4-------------- 4 6---- 9--|
D| 4-- 4-------------- 3-- 6------|---- 6-------------- 2 6---- 7--|
A|-------- 2-- 3-- 4--------------|-------- 2-- 3 4------ 7--------|
E| 4---------------------- 7------| 4------------------------------|
Classical Guitar Tablature http://classicalguitartablature.blogspot.com/
E|--------------------------------|--------------------------------|
B|----10-- 9-- 7------------------|------------ 5------------------|
G|---- 9 7---- 6------ 6------ 6--|---- 2------ 2------ 2------ 4--|
D|---- 7 9---- 7------ 7------ 7 4|---- 2------ 4------ 4------ 4--|
A| 9------ 8------ 7------ 6---- 5|-------- 4------ 2--------------|
E|--------------------------------|------------------------ 5------|
Classical Guitar Tablature http://classicalguitartablature.blogspot.com/
E|--------------------------------|--------------------------------|
B|------------ 5------ 5-------- 9|---- 5------ 2------------------|
G|---- 2------ 4------ 4------ 4 7|---- 5------ 2------ 2------ 2--|
D| 4-- 4------ 6------ 6------ 4--| 7-- 4------ 2-------------- 3--|
A|---------------- 5---- 4--------|--------------------------------|
E| 2------ 0----------------------| 7------ 4---- 5------ 3--------|
Classical Guitar Tablature http://classicalguitartablature.blogspot.com/
E|------------------------------ 5|---- 5-------------- 4-- 6-- 4--|
B|--------------------------------| 2-- 2---- 2-------- 3-- 5-- 5--|
G| 2---------- 2 4---- 4-- 3-- 3--| 2-- 2---- 2-------- 2-- 4-- 4--|
D| 2-- 2------ 1 5---- 5-- 4-- 4--|---------- 2--------------------|
A|------------------------ 6------| 5------ 4---- 4 2--------------|
E| 2---- 1-------- 0--------------|------------------------ 5------|
Classical Guitar Tablature http://classicalguitartablature.blogspot.com/
E| 2-- 2--------------------------|--------------------------------|
B| 5-- 5-------- 3---- 3----------| 9-- 5------ 2------------------|
G| 4-- 4------ 4 2---- 2------ 2--| 7---- 4---- 2------ 2---- 4----|
D|---------- 2-- 0---- 0---- 0----| 9---- 6---- 3------ 3------ 3--|
A|--------------------------------| 7------ 5------ 4--------------|
E| 4---- 3------ 2-------- 1------|---------------------- 3------ 2|
Classical Guitar Tablature http://classicalguitartablature.blogspot.com/
E|--------------------------------| 5-- 5-------------- 4----------|
B|--------------------------------| 2-- 2------ 2------ 3--10-- 9--|
G| 2-- 2------ 2-- 4---------- 2--| 2-- 2------ 2------ 2-- 7-- 6--|
D|-- 2------ 1-------- 5------ 4--|------------ 2-- 2------ 7-- 6--|
A|------------------------ 6------| 5---------------------- 8-- 7--|
E|-------- 1------ 0--------------|-------- 5------ 2--------------|
Classical Guitar Tablature http://classicalguitartablature.blogspot.com/
E|--------------------------------|--------------------------------|
B| 7-- 7---- 7-- 7---- 7----------| 9-- 5------------ 2------------|
G| 6-- 6---- 6-- 6---- 6 8--------| 7-- 5------------ 4------------|
D| 7-- 7---- 7-- 7---- 7 7---- 7--| 6-- 4---------- 2--------------|
A| 6------ 5-- 5 4----------------|--------------------------------|
E|---------------------- 8---- 7--| 6---- 4-------- 5--------------|
Classical Guitar Tablature http://classicalguitartablature.blogspot.com/
E|--------------------------------|--------------------------------|
B|--------------------------------|--------------------------------|
G|--------------------------------|--------------------------------|
D|--------------------------------|--------------------------------|
A|--------------------------------|--------------------------------|
E|--------------------------------|--------------------------------|

0 ความคิดเห็น:

แสดงความคิดเห็น